  0
SECTION
  2
HEADER
  9
$ACADVER
  1
AC1027
  9
$ACADMAINTVER
 70
    55
  9
$DWGCODEPAGE
  3
ANSI_936
  9
$LASTSAVEDBY
  1
LI
  9
$REQUIREDVERSIONS
160
                 0
  9
$INSBASE
 10
0.0
 20
0.0
 30
0.0
  9
$EXTMIN
 10
1023.704454711835
 20
-957.1255854503194
 30
0.0
  9
$EXTMAX
 10
1372.510157199065
 20
-637.1255854503179
 30
0.0
  9
$LIMMIN
 10
0.0
 20
0.0
  9
$LIMMAX
 10
12.0
 20
9.0
  9
$ORTHOMODE
 70
     0
  9
$REGENMODE
 70
     1
  9
$FILLMODE
 70
     1
  9
$QTEXTMODE
 70
     0
  9
$MIRRTEXT
 70
     1
  9
$LTSCALE
 40
1.0
  9
$ATTMODE
 70
     1
  9
$TEXTSIZE
 40
0.2
  9
$TRACEWID
 40
0.05
  9
$TEXTSTYLE
  7
Standard
  9
$CLAYER
  8
0
  9
$CELTYPE
  6
ByLayer
  9
$CECOLOR
 62
   256
  9
$CELTSCALE
 40
1.0
  9
$DISPSILH
 70
     0
  9
$DIMSCALE
 40
1.0
  9
$DIMASZ
 40
0.18
  9
$DIMEXO
 40
0.0625
  9
$DIMDLI
 40
0.38
  9
$DIMRND
 40
0.0
  9
$DIMDLE
 40
0.0
  9
$DIMEXE
 40
0.18
  9
$DIMTP
 40
0.0
  9
$DIMTM
 40
0.0
  9
$DIMTXT
 40
0.18
  9
$DIMCEN
 40
0.09
  9
$DIMTSZ
 40
0.0
  9
$DIMTOL
 70
     0
  9
$DIMLIM
 70
     0
  9
$DIMTIH
 70
     1
  9
$DIMTOH
 70
     1
  9
$DIMSE1
 70
     0
  9
$DIMSE2
 70
     0
  9
$DIMTAD
 70
     0
  9
$DIMZIN
 70
     0
  9
$DIMBLK
  1

  9
$DIMASO
 70
     1
  9
$DIMSHO
 70
     1
  9
$DIMPOST
  1

  9
$DIMAPOST
  1

  9
$DIMALT
 70
     0
  9
$DIMALTD
 70
     2
  9
$DIMALTF
 40
25.4
  9
$DIMLFAC
 40
1.0
  9
$DIMTOFL
 70
     0
  9
$DIMTVP
 40
0.0
  9
$DIMTIX
 70
     0
  9
$DIMSOXD
 70
     0
  9
$DIMSAH
 70
     0
  9
$DIMBLK1
  1

  9
$DIMBLK2
  1

  9
$DIMSTYLE
  2
Standard
  9
$DIMCLRD
 70
     0
  9
$DIMCLRE
 70
     0
  9
$DIMCLRT
 70
     0
  9
$DIMTFAC
 40
1.0
  9
$DIMGAP
 40
0.09
  9
$DIMJUST
 70
     0
  9
$DIMSD1
 70
     0
  9
$DIMSD2
 70
     0
  9
$DIMTOLJ
 70
     1
  9
$DIMTZIN
 70
     0
  9
$DIMALTZ
 70
     0
  9
$DIMALTTZ
 70
     0
  9
$DIMUPT
 70
     0
  9
$DIMDEC
 70
     4
  9
$DIMTDEC
 70
     4
  9
$DIMALTU
 70
     2
  9
$DIMALTTD
 70
     2
  9
$DIMTXSTY
  7
Standard
  9
$DIMAUNIT
 70
     0
  9
$DIMADEC
 70
     0
  9
$DIMALTRND
 40
0.0
  9
$DIMAZIN
 70
     0
  9
$DIMDSEP
 70
    46
  9
$DIMATFIT
 70
     3
  9
$DIMFRAC
 70
     0
  9
$DIMLDRBLK
  1

  9
$DIMLUNIT
 70
     2
  9
$DIMLWD
 70
    -2
  9
$DIMLWE
 70
    -2
  9
$DIMTMOVE
 70
     0
  9
$DIMFXL
 40
1.0
  9
$DIMFXLON
 70
     0
  9
$DIMJOGANG
 40
0.7853981633974483
  9
$DIMTFILL
 70
     0
  9
$DIMTFILLCLR
 70
     0
  9
$DIMARCSYM
 70
     0
  9
$DIMLTYPE
  6

  9
$DIMLTEX1
  6

  9
$DIMLTEX2
  6

  9
$DIMTXTDIRECTION
 70
     0
  9
$LUNITS
 70
     2
  9
$LUPREC
 70
     4
  9
$SKETCHINC
 40
0.1
  9
$FILLETRAD
 40
0.5
  9
$AUNITS
 70
     0
  9
$AUPREC
 70
     0
  9
$MENU
  1
.
  9
$ELEVATION
 40
0.0
  9
$PELEVATION
 40
0.0
  9
$THICKNESS
 40
0.0
  9
$LIMCHECK
 70
     0
  9
$CHAMFERA
 40
0.5
  9
$CHAMFERB
 40
0.5
  9
$CHAMFERC
 40
1.0
  9
$CHAMFERD
 40
0.0
  9
$SKPOLY
 70
     0
  9
$TDCREATE
 40
2456498.270549676
  9
$TDUCREATE
 40
2456497.937216343
  9
$TDUPDATE
 40
2457569.774338808
  9
$TDUUPDATE
 40
2457569.441005475
  9
$TDINDWG
 40
0.0019629282
  9
$TDUSRTIMER
 40
0.0019629282
  9
$USRTIMER
 70
     1
  9
$ANGBASE
 50
0.0
  9
$ANGDIR
 70
     0
  9
$PDMODE
 70
     0
  9
$PDSIZE
 40
0.0
  9
$PLINEWID
 40
0.0
  9
$SPLFRAME
 70
     0
  9
$SPLINETYPE
 70
     6
  9
$SPLINESEGS
 70
     8
  9
$HANDSEED
  5
820
  9
$SURFTAB1
 70
     6
  9
$SURFTAB2
 70
     6
  9
$SURFTYPE
 70
     6
  9
$SURFU
 70
     6
  9
$SURFV
 70
     6
  9
$UCSBASE
  2

  9
$UCSNAME
  2

  9
$UCSORG
 10
0.0
 20
0.0
 30
0.0
  9
$UCSXDIR
 10
1.0
 20
0.0
 30
0.0
  9
$UCSYDIR
 10
0.0
 20
1.0
 30
0.0
  9
$UCSORTHOREF
  2

  9
$UCSORTHOVIEW
 70
     0
  9
$UCSORGTOP
 10
0.0
 20
0.0
 30
0.0
  9
$UCSORGBOTTOM
 10
0.0
 20
0.0
 30
0.0
  9
$UCSORGLEFT
 10
0.0
 20
0.0
 30
0.0
  9
$UCSORGRIGHT
 10
0.0
 20
0.0
 30
0.0
  9
$UCSORGFRONT
 10
0.0
 20
0.0
 30
0.0
  9
$UCSORGBACK
 10
0.0
 20
0.0
 30
0.0
  9
$PUCSBASE
  2

  9
$PUCSNAME
  2

  9
$PUCSORG
 10
0.0
 20
0.0
 30
0.0
  9
$PUCSXDIR
 10
1.0
 20
0.0
 30
0.0
  9
$PUCSYDIR
 10
0.0
 20
1.0
 30
0.0
  9
$PUCSORTHOREF
  2

  9
$PUCSORTHOVIEW
 70
     0
  9
$PUCSORGTOP
 10
0.0
 20
0.0
 30
0.0
  9
$PUCSORGBOTTOM
 10
0.0
 20
0.0
 30
0.0
  9
$PUCSORGLEFT
 10
0.0
 20
0.0
 30
0.0
  9
$PUCSORGRIGHT
 10
0.0
 20
0.0
 30
0.0
  9
$PUCSORGFRONT
 10
0.0
 20
0.0
 30
0.0
  9
$PUCSORGBACK
 10
0.0
 20
0.0
 30
0.0
  9
$USERI1
 70
     0
  9
$USERI2
 70
     0
  9
$USERI3
 70
     0
  9
$USERI4
 70
     0
  9
$USERI5
 70
     0
  9
$USERR1
 40
0.0
  9
$USERR2
 40
0.0
  9
$USERR3
 40
0.0
  9
$USERR4
 40
0.0
  9
$USERR5
 40
0.0
  9
$WORLDVIEW
 70
     1
  9
$SHADEDGE
 70
     3
  9
$SHADEDIF
 70
    70
  9
$TILEMODE
 70
     1
  9
$MAXACTVP
 70
    64
  9
$PINSBASE
 10
0.0
 20
0.0
 30
0.0
  9
$PLIMCHECK
 70
     0
  9
$PEXTMIN
 10
3.15713315299277
 20
2.209414789719573
 30
0.0
  9
$PEXTMAX
 10
200.3709444587095
 20
287.7561714473947
 30
0.0
  9
$PLIMMIN
 10
-3.174999952316284
 20
-3.174999952316284
  9
$PLIMMAX
 10
206.7983276844024
 20
293.8568298816681
  9
$UNITMODE
 70
     0
  9
$VISRETAIN
 70
     1
  9
$PLINEGEN
 70
     0
  9
$PSLTSCALE
 70
     1
  9
$TREEDEPTH
 70
  3020
  9
$CMLSTYLE
  2
Standard
  9
$CMLJUST
 70
     0
  9
$CMLSCALE
 40
1.0
  9
$PROXYGRAPHICS
 70
     1
  9
$MEASUREMENT
 70
     0
  9
$CELWEIGHT
370
    -1
  9
$ENDCAPS
280
     0
  9
$JOINSTYLE
280
     0
  9
$LWDISPLAY
290
     1
  9
$INSUNITS
 70
     4
  9
$HYPERLINKBASE
  1

  9
$STYLESHEET
  1

  9
$XEDIT
290
     1
  9
$CEPSNTYPE
380
     0
  9
$PSTYLEMODE
290
     1
  9
$FINGERPRINTGUID
  2
{33B431BE-5106-4D7D-A01A-C85E6ED8EE98}
  9
$VERSIONGUID
  2
{583AE345-F785-4306-9849-5D6A9EEC48D4}
  9
$EXTNAMES
290
     1
  9
$PSVPSCALE
 40
0.0
  9
$OLESTARTUP
290
     0
  9
$SORTENTS
280
   127
  9
$INDEXCTL
280
     0
  9
$HIDETEXT
280
     1
  9
$XCLIPFRAME
280
     0
  9
$HALOGAP
280
     0
  9
$OBSCOLOR
 70
   257
  9
$OBSLTYPE
280
     0
  9
$INTERSECTIONDISPLAY
280
     0
  9
$INTERSECTIONCOLOR
 70
   257
  9
$DIMASSOC
280
     2
  9
$PROJECTNAME
  1

  9
$CAMERADISPLAY
290
     0
  9
$LENSLENGTH
 40
50.0
  9
$CAMERAHEIGHT
 40
0.0
  9
$STEPSPERSEC
 40
2.0
  9
$STEPSIZE
 40
6.0
  9
$3DDWFPREC
 40
2.0
  9
$PSOLWIDTH
 40
0.25
  9
$PSOLHEIGHT
 40
4.0
  9
$LOFTANG1
 40
1.570796326794896
  9
$LOFTANG2
 40
1.570796326794896
  9
$LOFTMAG1
 40
0.0
  9
$LOFTMAG2
 40
0.0
  9
$LOFTPARAM
 70
     7
  9
$LOFTNORMALS
280
     1
  9
$LATITUDE
 40
37.795
  9
$LONGITUDE
 40
-122.394
  9
$NORTHDIRECTION
 40
0.0
  9
$TIMEZONE
 70
 -8000
  9
$LIGHTGLYPHDISPLAY
280
     1
  9
$TILEMODELIGHTSYNCH
280
     1
  9
$CMATERIAL
347
3C
  9
$SOLIDHIST
280
     0
  9
$SHOWHIST
280
     1
  9
$DWFFRAME
280
     2
  9
$DGNFRAME
280
     0
  9
$REALWORLDSCALE
290
     1
  9
$INTERFERECOLOR
 62
     1
  9
$INTERFEREOBJVS
345
33
  9
$INTERFEREVPVS
346
217
  9
$CSHADOW
280
     0
  9
$SHADOWPLANELOCATION
 40
0.0
  0
ENDSEC
  0
SECTION
  2
CLASSES
  0
CLASS
  1
ACDBDICTIONARYWDFLT
  2
AcDbDictionaryWithDefault
  3
ObjectDBX Classes
 90
        0
 91
        1
280
     0
281
     0
  0
CLASS
  1
VISUALSTYLE
  2
AcDbVisualStyle
  3
ObjectDBX Classes
 90
     4095
 91
       26
280
     0
281
     0
  0
CLASS
  1
MATERIAL
  2
AcDbMaterial
  3
ObjectDBX Classes
 90
     1153
 91
        3
280
     0
281
     0
  0
CLASS
  1
SCALE
  2
AcDbScale
  3
ObjectDBX Classes
 90
     1153
 91
       33
280
     0
281
     0
  0
CLASS
  1
DICTIONARYVAR
  2
AcDbDictionaryVar
  3
ObjectDBX Classes
 90
        0
 91
        9
280
     0
281
     0
  0
CLASS
  1
TABLESTYLE
  2
AcDbTableStyle
  3
ObjectDBX Classes
 90
     4095
 91
        1
280
     0
281
     0
  0
CLASS
  1
MLEADERSTYLE
  2
AcDbMLeaderStyle
  3
ACDB_MLEADERSTYLE_CLASS
 90
     4095
 91
        1
280
     0
281
     0
  0
CLASS
  1
ACDBSECTIONVIEWSTYLE
  2
AcDbSectionViewStyle
  3
ObjectDBX Classes
 90
     1025
 91
        1
280
     0
281
     0
  0
CLASS
  1
ACDBDETAILVIEWSTYLE
  2
AcDbDetailViewStyle
  3
ObjectDBX Classes
 90
     1025
 91
        1
280
     0
281
     0
  0
CLASS
  1
EXACXREFPANELOBJECT
  2
ExAcXREFPanelObject
  3
EXAC_ESW
 90
     1025
 91
        0
280
     0
281
     0
  0
CLASS
  1
NPOCOLLECTION
  2
AcDbImpNonPersistentObjectsCollection
  3
ObjectDBX Classes
 90
     1153
 91
        0
280
     0
281
     0
  0
CLASS
  1
IMAGE
  2
AcDbRasterImage
  3
ISM
 90
     2175
 91
        1
280
     0
281
     1
  0
CLASS
  1
IMAGEDEF_REACTOR
  2
AcDbRasterImageDefReactor
  3
ISM
 90
        1
 91
        1
280
     0
281
     0
  0
CLASS
  1
IMAGEDEF
  2
AcDbRasterImageDef
  3
ISM
 90
        0
 91
        4
280
     0
281
     0
  0
CLASS
  1
RASTERVARIABLES
  2
AcDbRasterVariables
  3
ISM
 90
        0
 91
        1
280
     0
281
     0
  0
CLASS
  1
CELLSTYLEMAP
  2
AcDbCellStyleMap
  3
ObjectDBX Classes
 90
     1152
 91
        2
280
     0
281
     0
  0
ENDSEC
  0
SECTION
  2
TABLES
  0
TABLE
  2
VPORT
  5
8
330
0
100
AcDbSymbolTable
 70
     1
  0
VPORT
  5
29
330
8
100
AcDbSymbolTableRecord
100
AcDbViewportTableRecord
  2
*Active
 70
     0
 10
0.0
 20
0.0
 11
1.0
 21
1.0
 12
1346.667176735971
 22
-763.7146011879858
 13
0.0
 23
0.0
 14
0.5
 24
0.5
 15
0.5
 25
0.5
 16
0.0
 26
0.0
 36
1.0
 17
0.0
 27
0.0
 37
0.0
 40
539.0917345250842
 41
2.097014925373134
 42
50.0
 43
0.0
 44
0.0
 50
0.0
 51
0.0
 71
     0
 72
   100
 73
     1
 74
     3
 75
     0
 76
     0
 77
     0
 78
     0
281
     0
 65
     1
110
0.0
120
0.0
130
0.0
111
1.0
121
0.0
131
0.0
112
0.0
122
1.0
132
0.0
 79
     0
146
0.0
348
2F
 60
     3
 61
     5
292
     1
282
     1
141
0.0
142
0.0
 63
   250
421
  3355443
1001
ACAD_NAV_VCDISPLAY
1070
     3
  0
ENDTAB
  0
TABLE
  2
LTYPE
  5
5
330
0
100
AcDbSymbolTable
 70
     6
  0
LTYPE
  5
14
330
5
100
AcDbSymbolTableRecord
100
AcDbLinetypeTableRecord
  2
ByBlock
 70
     0
  3

 72
    65
 73
     0
 40
0.0
  0
LTYPE
  5
15
330
5
100
AcDbSymbolTableRecord
100
AcDbLinetypeTableRecord
  2
ByLayer
 70
     0
  3

 72
    65
 73
     0
 40
0.0
  0
LTYPE
  5
16
330
5
100
AcDbSymbolTableRecord
100
AcDbLinetypeTableRecord
  2
Continuous
 70
     0
  3
Solid line
 72
    65
 73
     0
 40
0.0
  0
LTYPE
  5
F0
330
5
100
AcDbSymbolTableRecord
100
AcDbLinetypeTableRecord
  2
Building Wrap
 70
     0
  3
- - - - - 
 72
    65
 73
     2
 40
6.0
 49
4.0
 74
     0
 49
-2.0
 74
     0
  0
LTYPE
  5
225
330
5
100
AcDbSymbolTableRecord
100
AcDbLinetypeTableRecord
  2
PHANTOM2
 70
     0
  3
Phantom (.5x) ___ _ _ ___ _ _ ___ _ _ ___ _ _
 72
    65
 73
     6
 40
1.25
 49
0.625
 74
     0
 49
-0.125
 74
     0
 49
0.125
 74
     0
 49
-0.125
 74
     0
 49
0.125
 74
     0
 49
-0.125
 74
     0
  0
LTYPE
  5
6E0
330
5
100
AcDbSymbolTableRecord
100
AcDbLinetypeTableRecord
  2
Hidden
 70
     0
  3
- - - - - 
 72
    65
 73
     2
 40
2.0
 49
1.0
 74
     0
 49
-1.0
 74
     0
  0
LTYPE
  5
6E1
330
5
100
AcDbSymbolTableRecord
100
AcDbLinetypeTableRecord
  2
Dashed
 70
     0
  3
- - - - - 
 72
    65
 73
     2
 40
6.0
 49
4.0
 74
     0
 49
-2.0
 74
     0
  0
ENDTAB
  0
TABLE
  2
LAYER
  5
2
102
{ACAD_XDICTIONARY
360
6F8
102
}
330
0
100
AcDbSymbolTable
 70
    19
  0
LAYER
  5
10
102
{ACAD_XDICTIONARY
360
73A
102
}
330
2
100
AcDbSymbolTableRecord
100
AcDbLayerTableRecord
  2
0
 70
     0
 62
     7
  6
Continuous
370
    -3
390
F
347
3E
348
0
  0
LAYER
  5
40
102
{ACAD_XDICTIONARY
360
73C
102
}
330
2
100
AcDbSymbolTableRecord
100
AcDbLayerTableRecord
  2
0_Pen_No__153
 70
     0
 62
     9
420
 12171705
  6
Continuous
370
    13
390
F
347
3E
348
0
  0
LAYER
  5
42
102
{ACAD_XDICTIONARY
360
73E
102
}
330
2
100
AcDbSymbolTableRecord
100
AcDbLayerTableRecord
  2
Fills_ Pattern_Pen_No__151
 70
     0
 62
   254
420
 15263976
  6
Continuous
370
    13
390
F
347
3E
348
0
  0
LAYER
  5
43
102
{ACAD_XDICTIONARY
360
740
102
}
330
2
100
AcDbSymbolTableRecord
100
AcDbLayerTableRecord
  2
Fills_ Pattern_Pen_No__4
 70
     0
 62
     7
  6
Continuous
370
    25
390
F
347
3E
348
0
  0
LAYER
  5
46
102
{ACAD_XDICTIONARY
360
742
102
}
330
2
100
AcDbSymbolTableRecord
100
AcDbLayerTableRecord
  2
Fills_ Pattern_Pen_No__153
 70
     0
 62
     9
420
 12171705
  6
Continuous
370
    13
390
F
347
3E
348
0
  0
LAYER
  5
48
102
{ACAD_XDICTIONARY
360
744
102
}
330
2
100
AcDbSymbolTableRecord
100
AcDbLayerTableRecord
  2
Fills_ Pattern_Pen_No__154
 70
     0
 62
   253
420
 10658466
  6
Continuous
370
    13
390
F
347
3E
348
0
  0
LAYER
  5
4A
102
{ACAD_XDICTIONARY
360
746
102
}
330
2
100
AcDbSymbolTableRecord
100
AcDbLayerTableRecord
  2
Documentation_ Finishes_Pen_No__151
 70
     0
 62
   254
420
 15263976
  6
Continuous
370
    13
390
F
347
3E
348
0
  0
LAYER
  5
4B
102
{ACAD_XDICTIONARY
360
748
102
}
330
2
100
AcDbSymbolTableRecord
100
AcDbLayerTableRecord
  2
Documentation_ Finishes_Pen_No__4
 70
     0
 62
     7
  6
Continuous
370
    25
390
F
347
3E
348
0
  0
LAYER
  5
E6
102
{ACAD_XDICTIONARY
360
74A
102
}
330
2
100
AcDbSymbolTableRecord
100
AcDbLayerTableRecord
  2
Documentation_ Floor_Pen_No__2
 70
     0
 62
     7
  6
Continuous
370
    13
390
F
347
3E
348
0
  0
LAYER
  5
EA
102
{ACAD_XDICTIONARY
360
74C
102
}
330
2
100
AcDbSymbolTableRecord
100
AcDbLayerTableRecord
  2
0_Pen_No__1
 70
     0
 62
     7
  6
Continuous
370
     0
390
F
347
3E
348
0
  0
LAYER
  5
EE
102
{ACAD_XDICTIONARY
360
74E
102
}
330
2
100
AcDbSymbolTableRecord
100
AcDbLayerTableRecord
  2
0_Pen_No__2
 70
     0
 62
     7
  6
Continuous
370
    13
390
F
347
3E
348
0
  0
LAYER
  5
F9
102
{ACAD_XDICTIONARY
360
750
102
}
330
2
100
AcDbSymbolTableRecord
100
AcDbLayerTableRecord
  2
Documentation_ Floor_Pen_No__1
 70
     0
 62
     7
  6
Continuous
370
     0
390
F
347
3E
348
0
  0
LAYER
  5
FC
102
{ACAD_XDICTIONARY
360
752
102
}
330
2
100
AcDbSymbolTableRecord
100
AcDbLayerTableRecord
  2
Documentation_ Floor_Pen_No__4
 70
     0
 62
     7
  6
Continuous
370
    25
390
F
347
3E
348
0
  0
LAYER
  5
FE
102
{ACAD_XDICTIONARY
360
754
102
}
330
2
100
AcDbSymbolTableRecord
100
AcDbLayerTableRecord
  2
False Bits_ Plan_Pen_No__1
 70
     0
 62
     7
  6
Continuous
370
     0
390
F
347
3E
348
0
  0
LAYER
  5
106
102
{ACAD_XDICTIONARY
360
756
102
}
330
2
100
AcDbSymbolTableRecord
100
AcDbLayerTableRecord
  2
False Bits_ Plan_Pen_No__2
 70
     0
 62
     7
  6
Continuous
370
    13
390
F
347
3E
348
0
  0
LAYER
  5
167
102
{ACAD_XDICTIONARY
360
758
102
}
330
2
100
AcDbSymbolTableRecord
100
AcDbLayerTableRecord
  2
Documentation_ Floor
 70
     0
 62
     7
  6
Continuous
370
    -3
390
F
347
3E
348
0
  0
LAYER
  5
6E3
102
{ACAD_XDICTIONARY
360
75A
102
}
330
2
100
AcDbSymbolTableRecord
100
AcDbLayerTableRecord
  2
Fills_ Pattern_Pen_No__2
 70
     0
 62
     7
  6
Continuous
370
    13
390
F
347
3E
348
0
  0
LAYER
  5
6E4
102
{ACAD_XDICTIONARY
360
75C
102
}
330
2
100
AcDbSymbolTableRecord
100
AcDbLayerTableRecord
  2
Fills_ Pattern_Pen_No__1
 70
     0
 62
     7
  6
Continuous
370
     0
390
F
347
3E
348
0
  0
LAYER
  5
6E5
102
{ACAD_XDICTIONARY
360
75E
102
}
330
2
100
AcDbSymbolTableRecord
100
AcDbLayerTableRecord
  2
Documentation_ Floor_Pen_No__5
 70
     0
 62
     7
  6
Continuous
370
    35
390
F
347
3E
348
0
  0
ENDTAB
  0
TABLE
  2
STYLE
  5
3
330
0
100
AcDbSymbolTable
 70
     2
  0
STYLE
  5
11
330
3
100
AcDbSymbolTableRecord
100
AcDbTextStyleTableRecord
  2
Standard
 70
     0
 40
0.0
 41
1.0
 50
0.0
 71
     0
 42
0.2
  3
txt
  4

  0
STYLE
  5
19B
330
3
100
AcDbSymbolTableRecord
100
AcDbTextStyleTableRecord
  2
GENERATED_STYLE_1
 70
     0
 40
0.0
 41
1.0
 50
0.0
 71
     0
 42
0.2
  3
arial.ttf
  4

1001
ACAD
1000
Arial
1071
       34
  0
ENDTAB
  0
TABLE
  2
VIEW
  5
6
330
0
100
AcDbSymbolTable
 70
     2
  0
ENDTAB
  0
TABLE
  2
UCS
  5
7
330
0
100
AcDbSymbolTable
 70
     0
  0
ENDTAB
  0
TABLE
  2
APPID
  5
9
330
0
100
AcDbSymbolTable
 70
    10
  0
APPID
  5
12
330
9
100
AcDbSymbolTableRecord
100
AcDbRegAppTableRecord
  2
ACAD
 70
     0
  0
APPID
  5
6EC
330
9
100
AcDbSymbolTableRecord
100
AcDbRegAppTableRecord
  2
ACAD_PSEXT
 70
     0
  0
APPID
  5
6EE
330
9
100
AcDbSymbolTableRecord
100
AcDbRegAppTableRecord
  2
AcadAnnotative
 70
     0
  0
APPID
  5
6EF
330
9
100
AcDbSymbolTableRecord
100
AcDbRegAppTableRecord
  2
ACAD_DSTYLE_DIMJAG
 70
     0
  0
APPID
  5
6F0
330
9
100
AcDbSymbolTableRecord
100
AcDbRegAppTableRecord
  2
ACAD_DSTYLE_DIMTALN
 70
     0
  0
APPID
  5
6F3
330
9
100
AcDbSymbolTableRecord
100
AcDbRegAppTableRecord
  2
AcAecLayerStandard
 70
     0
  0
APPID
  5
6F4
330
9
100
AcDbSymbolTableRecord
100
AcDbRegAppTableRecord
  2
AcCmTransparency
 70
     0
  0
APPID
  5
728
330
9
100
AcDbSymbolTableRecord
100
AcDbRegAppTableRecord
  2
ACAD_NAV_VCDISPLAY
 70
     0
  0
APPID
  5
738
330
9
100
AcDbSymbolTableRecord
100
AcDbRegAppTableRecord
  2
ACAD_EXEMPT_FROM_CAD_STANDARDS
 70
     0
  0
APPID
  5
7EB
330
9
100
AcDbSymbolTableRecord
100
AcDbRegAppTableRecord
  2
ACAD_MLEADERVER
 70
     0
  0
ENDTAB
  0
TABLE
  2
DIMSTYLE
  5
A
330
0
100
AcDbSymbolTable
 70
     3
100
AcDbDimStyleTable
 71
     1
340
27
  0
DIMSTYLE
105
27
330
A
100
AcDbSymbolTableRecord
100
AcDbDimStyleTableRecord
  2
Standard
 70
     0
340
11
  0
DIMSTYLE
105
6EA
330
A
100
AcDbSymbolTableRecord
100
AcDbDimStyleTableRecord
  2
GENERATED_STYLE__1
 70
     0
 41
3.04
 42
10.0
 73
     0
 74
     0
 77
     1
140
5.0
172
     1
176
     7
177
     7
178
     7
271
     0
340
19B
342
5B3
343
5B3
344
5B3
  0
DIMSTYLE
105
6EB
330
A
100
AcDbSymbolTableRecord
100
AcDbDimStyleTableRecord
  2
GENERATED_STYLE__2
 70
     0
 41
3.04
 42
10.0
 77
     1
140
5.0
172
     1
176
     7
177
     7
178
     7
271
     0
340
19B
342
5B3
343
5B3
344
5B3
  0
ENDTAB
  0
TABLE
  2
BLOCK_RECORD
  5
1
330
0
100
AcDbSymbolTable
 70
    22
  0
BLOCK_RECORD
  5
1F
330
1
100
AcDbSymbolTableRecord
100
AcDbBlockTableRecord
  2
*Model_Space
340
22
 70
     0
280
     1
281
     0
  0
BLOCK_RECORD
  5
6FB
102
{ACAD_XDICTIONARY
360
719
102
}
330
1
100
AcDbSymbolTableRecord
100
AcDbBlockTableRecord
  2
*Paper_Space
340
6FA
 70
     0
280
     1
281
     0
  0
BLOCK_RECORD
  5
4D
330
1
100
AcDbSymbolTableRecord
100
AcDbBlockTableRecord
  2
Fill_1
340
0
102
{BLKREFS
331
DF
102
}
 70
     0
280
     1
281
     0
  0
BLOCK_RECORD
  5
50
330
1
100
AcDbSymbolTableRecord
100
AcDbBlockTableRecord
  2
*X1
340
0
102
{BLKREFS
331
DA
102
}
 70
     0
280
     1
281
     0
  0
BLOCK_RECORD
  5
162
330
1
100
AcDbSymbolTableRecord
100
AcDbBlockTableRecord
  2
PolyLine_1
340
0
102
{BLKREFS
331
169
102
}
 70
     0
280
     1
281
     0
  0
BLOCK_RECORD
  5
16A
330
1
100
AcDbSymbolTableRecord
100
AcDbBlockTableRecord
  2
PolyLine_2
340
0
102
{BLKREFS
331
170
102
}
 70
     0
280
     1
281
     0
  0
BLOCK_RECORD
  5
171
330
1
100
AcDbSymbolTableRecord
100
AcDbBlockTableRecord
  2
PolyLine_3
340
0
102
{BLKREFS
331
177
102
}
 70
     0
280
     1
281
     0
  0
BLOCK_RECORD
  5
178
330
1
100
AcDbSymbolTableRecord
100
AcDbBlockTableRecord
  2
PolyLine_4
340
0
102
{BLKREFS
331
17E
102
}
 70
     0
280
     1
281
     0
  0
BLOCK_RECORD
  5
17F
330
1
100
AcDbSymbolTableRecord
100
AcDbBlockTableRecord
  2
PolyLine_5
340
0
102
{BLKREFS
331
185
102
}
 70
     0
280
     1
281
     0
  0
BLOCK_RECORD
  5
186
330
1
100
AcDbSymbolTableRecord
100
AcDbBlockTableRecord
  2
PolyLine_6
340
0
102
{BLKREFS
331
18C
102
}
 70
     0
280
     1
281
     0
  0
BLOCK_RECORD
  5
18D
330
1
100
AcDbSymbolTableRecord
100
AcDbBlockTableRecord
  2
PolyLine_7
340
0
102
{BLKREFS
331
193
102
}
 70
     0
280
     1
281
     0
  0
BLOCK_RECORD
  5
194
330
1
100
AcDbSymbolTableRecord
100
AcDbBlockTableRecord
  2
PolyLine_8
340
0
102
{BLKREFS
331
19A
102
}
 70
     0
280
     1
281
     0
  0
BLOCK_RECORD
  5
1A4
330
1
100
AcDbSymbolTableRecord
100
AcDbBlockTableRecord
  2
Untitled _STORY_MARKER
340
0
 70
     0
280
     1
281
     0
  0
BLOCK_RECORD
  5
31B
330
1
100
AcDbSymbolTableRecord
100
AcDbBlockTableRecord
  2
Fill_2
340
0
 70
     0
280
     1
281
     0
  0
BLOCK_RECORD
  5
31F
330
1
100
AcDbSymbolTableRecord
100
AcDbBlockTableRecord
  2
*X12
340
0
102
{BLKREFS
331
31D
102
}
 70
     0
280
     1
281
     0
  0
BLOCK_RECORD
  5
53F
330
1
100
AcDbSymbolTableRecord
100
AcDbBlockTableRecord
  2
Fill_3
340
0
 70
     0
280
     1
281
     0
  0
BLOCK_RECORD
  5
547
330
1
100
AcDbSymbolTableRecord
100
AcDbBlockTableRecord
  2
*X14
340
0
102
{BLKREFS
331
541
102
}
 70
     0
280
     1
281
     0
  0
BLOCK_RECORD
  5
597
330
1
100
AcDbSymbolTableRecord
100
AcDbBlockTableRecord
  2
Line_1
340
0
 70
     0
280
     1
281
     0
  0
BLOCK_RECORD
  5
59F
330
1
100
AcDbSymbolTableRecord
100
AcDbBlockTableRecord
  2
Line_2
340
0
 70
     0
280
     1
281
     0
  0
BLOCK_RECORD
  5
5A7
330
1
100
AcDbSymbolTableRecord
100
AcDbBlockTableRecord
  2
PolyLine_9
340
0
 70
     0
280
     1
281
     0
  0
BLOCK_RECORD
  5
5AD
330
1
100
AcDbSymbolTableRecord
100
AcDbBlockTableRecord
  2
PolyLine_10
340
0
 70
     0
280
     1
281
     0
  0
BLOCK_RECORD
  5
5B3
330
1
100
AcDbSymbolTableRecord
100
AcDbBlockTableRecord
  2
ARROWHEAD_2
340
0
 70
     0
280
     1
281
     0
  0
BLOCK_RECORD
  5
5B8
330
1
100
AcDbSymbolTableRecord
100
AcDbBlockTableRecord
  2
PolyLine_11
340
0
 70
     0
280
     1
281
     0
  0
BLOCK_RECORD
  5
5BE
330
1
100
AcDbSymbolTableRecord
100
AcDbBlockTableRecord
  2
PolyLine_12
340
0
 70
     0
280
     1
281
     0
  0
ENDTAB
  0
ENDSEC
  0
SECTION
  2
BLOCKS
  0
BLOCK
  5
20
330
1F
100
AcDbEntity
  8
0
100
AcDbBlockBegin
  2
*Model_Space
 70
     0
 10
0.0
 20
0.0
 30
0.0
  3
*Model_Space
  1

  0
ENDBLK
  5
21
330
1F
100
AcDbEntity
  8
0
100
AcDbBlockEnd
  0
BLOCK
  5
71A
330
6FB
100
AcDbEntity
 67
     1
  8
0
100
AcDbBlockBegin
  2
*Paper_Space
 70
     0
 10
0.0
 20
0.0
 30
0.0
  3
*Paper_Space
  1

  0
ENDBLK
  5
71B
330
6FB
100
AcDbEntity
 67
     1
  8
0
100
AcDbBlockEnd
  0
BLOCK
  5
4E
330
4D
100
AcDbEntity
  8
0
100
AcDbBlockBegin
  2
Fill_1
 70
     0
 10
0.0
 20
0.0
 30
0.0
  3
Fill_1
  1

  0
INSERT
  5
DA
330
4D
100
AcDbEntity
  8
Fills_ Pattern_Pen_No__153
  6
Continuous
100
AcDbBlockReference
  2
*X1
 10
0.0
 20
0.0
 30
0.0
  0
LINE
  5
DB
330
4D
100
AcDbEntity
  8
Fills_ Pattern_Pen_No__4
  6
Continuous
100
AcDbLine
 10
1248.137033051647
 20
-758.6255854503171
 30
0.0
 11
1230.137033051647
 21
-758.6255854503171
 31
0.0
  0
LINE
  5
DC
330
4D
100
AcDbEntity
  8
Fills_ Pattern_Pen_No__4
  6
Continuous
100
AcDbLine
 10
1230.137033051647
 20
-758.6255854503171
 30
0.0
 11
1230.137033051647
 21
-788.6255854503166
 31
0.0
  0
LINE
  5
DD
330
4D
100
AcDbEntity
  8
Fills_ Pattern_Pen_No__4
  6
Continuous
100
AcDbLine
 10
1230.137033051647
 20
-788.6255854503166
 30
0.0
 11
1240.137033051647
 21
-788.6255854503166
 31
0.0
  0
LINE
  5
DE
330
4D
100
AcDbEntity
  8
Fills_ Pattern_Pen_No__4
  6
Continuous
100
AcDbLine
 10
1240.137033051647
 20
-788.6255854503166
 30
0.0
 11
1248.137033051647
 21
-758.6255854503171
 31
0.0
  0
ENDBLK
  5
4F
330
4D
100
AcDbEntity
  8
0
100
AcDbBlockEnd
  0
BLOCK
  5
51
330
50
100
AcDbEntity
  8
0
100
AcDbBlockBegin
  2
*X1
 70
     1
 10
0.0
 20
0.0
 30
0.0
  3
*X1
  1

  0
LINE
  5
53
330
50
100
AcDbEntity
  8
Fills_ Pattern_Pen_No__153
  6
Continuous
100
AcDbLine
 10
1235.458670733154
 20
-782.8537622312685
 30
0.0
 11
1235.682049539217
 21
-782.5023119050909
 31
0.0
  0
LINE
  5
54
330
50
100
AcDbEntity
  8
Fills_ Pattern_Pen_No__153
  6
Continuous
100
AcDbLine
 10
1235.682049539217
 20
-782.5023119050909
 30
0.0
 11
1235.906231929326
 21
-782.1513736217232
 31
0.0
  0
LINE
  5
55
330
50
100
AcDbEntity
  8
Fills_ Pattern_Pen_No__153
  6
Continuous
100
AcDbLine
 10
1235.906231929326
 20
-782.1513736217232
 30
0.0
 11
1236.131216729752
 21
-781.800949218541
 31
0.0
  0
LINE
  5
56
330
50
100
AcDbEntity
  8
Fills_ Pattern_Pen_No__153
  6
Continuous
100
AcDbLine
 10
1236.131216729752
 20
-781.800949218541
 30
0.0
 11
1236.357002762561
 21
-781.4510405302289
 31
0.0
  0
LINE
  5
57
330
50
100
AcDbEntity
  8
Fills_ Pattern_Pen_No__153
  6
Continuous
100
AcDbLine
 10
1236.357002762561
 20
-781.4510405302289
 30
0.0
 11
1236.583588845628
 21
-781.1016493887715
 31
0.0
  0
LINE
  5
58
330
50
100
AcDbEntity
  8
Fills_ Pattern_Pen_No__153
  6
Continuous
100
AcDbLine
 10
1236.583588845628
 20
-781.1016493887715
 30
0.0
 11
1236.810973792635
 21
-780.7527776234442
 31
0.0
  0
LINE
  5
59
330
50
100
AcDbEntity
  8
Fills_ Pattern_Pen_No__153
  6
Continuous
100
AcDbLine
 10
1230.137033051647
 20
-774.606362939727
 30
0.0
 11
1230.345189385465
 21
-774.2869932162744
 31
0.0
  0
LINE
  5
5A
330
50
100
AcDbEntity
  8
Fills_ Pattern_Pen_No__153
  6
Continuous
100
AcDbLine
 10
1236.810973792635
 20
-780.7527776234442
 30
0.0
 11
1237.039156413085
 21
-780.4044270608024
 31
0.0
  0
LINE
  5
5B
330
50
100
AcDbEntity
  8
Fills_ Pattern_Pen_No__153
  6
Continuous
100
AcDbLine
 10
1230.345189385465
 20
-774.2869932162744
 30
0.0
 11
1230.573372005915
 21
-773.9386426536325
 31
0.0
  0
LINE
  5
5C
330
50
100
AcDbEntity
  8
Fills_ Pattern_Pen_No__153
  6
Continuous
100
AcDbLine
 10
1237.039156413085
 20
-780.4044270608024
 30
0.0
 11
1237.268135512302
 21
-780.056599524673
 31
0.0
  0
LINE
  5
5D
330
50
100
AcDbEntity
  8
Fills_ Pattern_Pen_No__153
  6
Continuous
100
AcDbLine
 10
1230.573372005915
 20
-773.9386426536325
 30
0.0
 11
1230.802351105132
 21
-773.5908151175033
 31
0.0
  0
LINE
  5
5E
330
50
100
AcDbEntity
  8
Fills_ Pattern_Pen_No__153
  6
Continuous
100
AcDbLine
 10
1236.968415945265
 20
-784.3635074433792
 30
0.0
 11
1237.893100450229
 21
-782.8062280679191
 31
0.0
  0
LINE
  5
5F
330
50
100
AcDbEntity
  8
Fills_ Pattern_Pen_No__153
  6
Continuous
100
AcDbLine
 10
1230.502631538095
 20
-777.8977230362094
 30
0.0
 11
1231.427316043059
 21
-776.3404436607491
 31
0.0
  0
LINE
  5
60
330
50
100
AcDbEntity
  8
Fills_ Pattern_Pen_No__153
  6
Continuous
100
AcDbLine
 10
1237.893100450229
 20
-782.8062280679191
 30
0.0
 11
1238.8410891396
 21
-781.2630242797632
 31
0.0
  0
LINE
  5
61
330
50
100
AcDbEntity
  8
Fills_ Pattern_Pen_No__153
  6
Continuous
100
AcDbLine
 10
1231.427316043059
 20
-776.3404436607491
 30
0.0
 11
1232.37530473243
 21
-774.7972398725933
 31
0.0
  0
LINE
  5
62
330
50
100
AcDbEntity
  8
Fills_ Pattern_Pen_No__153
  6
Continuous
100
AcDbLine
 10
1238.8410891396
 20
-781.2630242797632
 30
0.0
 11
1239.812167799466
 21
-779.734244791639
 31
0.0
  0
LINE
  5
63
330
50
100
AcDbEntity
  8
Fills_ Pattern_Pen_No__153
  6
Continuous
100
AcDbLine
 10
1232.37530473243
 20
-774.7972398725933
 30
0.0
 11
1233.346383392296
 21
-773.2684603844693
 31
0.0
  0
LINE
  5
64
330
50
100
AcDbEntity
  8
Fills_ Pattern_Pen_No__153
  6
Continuous
100
AcDbLine
 10
1239.812167799466
 20
-779.734244791639
 30
0.0
 11
1240.806116998347
 21
-778.2202350568627
 31
0.0
  0
LINE
  5
65
330
50
100
AcDbEntity
  8
Fills_ Pattern_Pen_No__153
  6
Continuous
100
AcDbLine
 10
1233.346383392296
 20
-773.2684603844693
 30
0.0
 11
1234.340332591178
 21
-771.7544506496929
 31
0.0
  0
LINE
  5
66
330
50
100
AcDbEntity
  8
Fills_ Pattern_Pen_No__153
  6
Continuous
100
AcDbLine
 10
1240.806116998347
 20
-778.2202350568627
 30
0.0
 11
1241.822712136786
 21
-776.7213371912768
 31
0.0
  0
LINE
  5
67
330
50
100
AcDbEntity
  8
Fills_ Pattern_Pen_No__153
  6
Continuous
100
AcDbLine
 10
1234.340332591178
 20
-771.7544506496929
 30
0.0
 11
1235.356927729616
 21
-770.2555527841069
 31
0.0
  0
LINE
  5
68
330
50
100
AcDbEntity
  8
Fills_ Pattern_Pen_No__153
  6
Continuous
100
AcDbLine
 10
1241.822712136786
 20
-776.7213371912768
 30
0.0
 11
1242.861723498093
 21
-775.2378898959441
 31
0.0
  0
LINE
  5
69
330
50
100
AcDbEntity
  8
Fills_ Pattern_Pen_No__153
  6
Continuous
100
AcDbLine
 10
1235.356927729616
 20
-770.2555527841069
 30
0.0
 11
1236.395939090923
 21
-768.7721054887743
 31
0.0
  0
LINE
  5
6A
330
50
100
AcDbEntity
  8
Fills_ Pattern_Pen_No__153
  6
Continuous
100
AcDbLine
 10
1242.861723498093
 20
-775.2378898959441
 30
0.0
 11
1243.922916300259
 21
-773.7702283806124
 31
0.0
  0
LINE
  5
6B
330
50
100
AcDbEntity
  8
Fills_ Pattern_Pen_No__153
  6
Continuous
100
AcDbLine
 10
1236.395939090923
 20
-768.7721054887743
 30
0.0
 11
1237.457131893089
 21
-767.3044439734425
 31
0.0
  0
LINE
  5
6C
330
50
100
AcDbEntity
  8
Fills_ Pattern_Pen_No__153
  6
Continuous
100
AcDbLine
 10
1230.137033051647
 20
-762.0202020857973
 30
0.0
 11
1230.991347485919
 21
-760.8386595662726
 31
0.0
  0
LINE
  5
6D
330
50
100
AcDbEntity
  8
Fills_ Pattern_Pen_No__153
  6
Continuous
100
AcDbLine
 10
1243.922916300259
 20
-773.7702283806124
 30
0.0
 11
1244.196082767846
 21
-773.404149014571
 31
0.0
  0
LINE
  5
6E
330
50
100
AcDbEntity
  8
Fills_ Pattern_Pen_No__153
  6
Continuous
100
AcDbLine
 10
1237.457131893089
 20
-767.3044439734425
 30
0.0
 11
1238.540266341837
 21
-765.8528998807985
 31
0.0
  0
LINE
  5
6F
330
50
100
AcDbEntity
  8
Fills_ Pattern_Pen_No__153
  6
Continuous
100
AcDbLine
 10
1230.991347485919
 20
-760.8386595662726
 30
0.0
 11
1232.074481934667
 21
-759.3871154736286
 31
0.0
  0
LINE
  5
70
330
50
100
AcDbEntity
  8
Fills_ Pattern_Pen_No__153
  6
Continuous
100
AcDbLine
 10
1238.197713973015
 20
-785.5928054711296
 30
0.0
 11
1240.095247823546
 21
-782.5495671032181
 31
0.0
  0
LINE
  5
71
330
50
100
AcDbEntity
  8
Fills_ Pattern_Pen_No__153
  6
Continuous
100
AcDbLine
 10
1231.731929565845
 20
-779.1270210639598
 30
0.0
 11
1233.629463416376
 21
-776.0837826960482
 31
0.0
  0
LINE
  5
72
330
50
100
AcDbEntity
  8
Fills_ Pattern_Pen_No__153
  6
Continuous
100
AcDbLine
 10
1240.095247823546
 20
-782.5495671032181
 30
0.0
 11
1242.063999741648
 21
-779.5519096239834
 31
0.0
  0
LINE
  5
73
330
50
100
AcDbEntity
  8
Fills_ Pattern_Pen_No__153
  6
Continuous
100
AcDbLine
 10
1233.629463416376
 20
-776.0837826960482
 30
0.0
 11
1235.598215334478
 21
-773.0861252168137
 31
0.0
  0
LINE
  5
74
330
50
100
AcDbEntity
  8
Fills_ Pattern_Pen_No__153
  6
Continuous
100
AcDbLine
 10
1242.063999741648
 20
-779.5519096239834
 30
0.0
 11
1242.866263146102
 21
-778.3909725961109
 31
0.0
  0
LINE
  5
75
330
50
100
AcDbEntity
  8
Fills_ Pattern_Pen_No__153
  6
Continuous
100
AcDbLine
 10
1235.598215334478
 20
-773.0861252168137
 30
0.0
 11
1237.637090939759
 21
-770.1357149497439
 31
0.0
  0
LINE
  5
76
330
50
100
AcDbEntity
  8
Fills_ Pattern_Pen_No__153
  6
Continuous
100
AcDbLine
 10
1230.137033051647
 20
-765.1666040469429
 30
0.0
 11
1231.171306532589
 21
-763.669930542574
 31
0.0
  0
LINE
  5
77
330
50
100
AcDbEntity
  8
Fills_ Pattern_Pen_No__153
  6
Continuous
100
AcDbLine
 10
1237.637090939759
 20
-770.1357149497439
 30
0.0
 11
1239.74495687181
 21
-767.2341919547737
 31
0.0
  0
LINE
  5
78
330
50
100
AcDbEntity
  8
Fills_ Pattern_Pen_No__153
  6
Continuous
100
AcDbLine
 10
1231.171306532589
 20
-763.669930542574
 30
0.0
 11
1233.27917246464
 21
-760.7684075476039
 31
0.0
  0
LINE
  5
79
330
50
100
AcDbEntity
  8
Fills_ Pattern_Pen_No__153
  6
Continuous
100
AcDbLine
 10
1239.74495687181
 20
-767.2341919547737
 30
0.0
 11
1241.920641420206
 21
-764.3831691166143
 31
0.0
  0
LINE
  5
7A
330
50
100
AcDbEntity
  8
Fills_ Pattern_Pen_No__153
  6
Continuous
100
AcDbLine
 10
1233.27917246464
 20
-760.7684075476039
 30
0.0
 11
1234.914411882799
 21
-758.6255854503171
 31
0.0
  0
LINE
  5
7B
330
50
100
AcDbEntity
  8
Fills_ Pattern_Pen_No__153
  6
Continuous
100
AcDbLine
 10
1241.920641420206
 20
-764.3831691166143
 30
0.0
 11
1244.162935175839
 21
-761.5842312481913
 31
0.0
  0
LINE
  5
7C
330
50
100
AcDbEntity
  8
Fills_ Pattern_Pen_No__153
  6
Continuous
100
AcDbLine
 10
1244.162935175839
 20
-761.5842312481913
 30
0.0
 11
1246.470591703189
 21
-758.8389342096877
 31
0.0
  0
LINE
  5
7D
330
50
100
AcDbEntity
  8
Fills_ Pattern_Pen_No__153
  6
Continuous
100
AcDbLine
 10
1246.470591703189
 20
-758.8389342096877
 30
0.0
 11
1246.658689309998
 21
-758.6255854503171
 31
0.0
  0
LINE
  5
7E
330
50
100
AcDbEntity
  8
Fills_ Pattern_Pen_No__153
  6
Continuous
100
AcDbLine
 10
1239.694968370249
 20
-787.0900598683638
 30
0.0
 11
1241.058784299571
 21
-785.1690182706041
 31
0.0
  0
LINE
  5
7F
330
50
100
AcDbEntity
  8
Fills_ Pattern_Pen_No__153
  6
Continuous
100
AcDbLine
 10
1233.22918396308
 20
-780.624275461194
 30
0.0
 11
1234.937420645387
 21
-778.2180902458885
 31
0.0
  0
LINE
  5
80
330
50
100
AcDbEntity
  8
Fills_ Pattern_Pen_No__153
  6
Continuous
100
AcDbLine
 10
1234.937420645387
 20
-778.2180902458885
 30
0.0
 11
1236.646510161486
 21
-775.8125107150702
 31
0.0
  0
LINE
  5
81
330
50
100
AcDbEntity
  8
Fills_ Pattern_Pen_No__153
  6
Continuous
100
AcDbLine
 10
1230.137033051647
 20
-769.4082247081864
 30
0.0
 11
1230.180725754316
 21
-769.3467263079003
 31
0.0
  0
LINE
  5
82
330
50
100
AcDbEntity
  8
Fills_ Pattern_Pen_No__153
  6
Continuous
100
AcDbLine
 10
1236.646510161486
 20
-775.8125107150702
 30
0.0
 11
1238.356452296623
 21
-773.4075371710125
 31
0.0
  0
LINE
  5
83
330
50
100
AcDbEntity
  8
Fills_ Pattern_Pen_No__153
  6
Continuous
100
AcDbLine
 10
1230.180725754316
 20
-769.3467263079003
 30
0.0
 11
1231.890667889453
 21
-766.9417527638427
 31
0.0
  0
LINE
  5
84
330
50
100
AcDbEntity
  8
Fills_ Pattern_Pen_No__153
  6
Continuous
100
AcDbLine
 10
1238.356452296623
 20
-773.4075371710125
 30
0.0
 11
1240.06724683593
 21
-771.0031699159125
 31
0.0
  0
LINE
  5
85
330
50
100
AcDbEntity
  8
Fills_ Pattern_Pen_No__153
  6
Continuous
100
AcDbLine
 10
1231.890667889453
 20
-766.9417527638427
 30
0.0
 11
1233.60146242876
 21
-764.5373855087427
 31
0.0
  0
LINE
  5
86
330
50
100
AcDbEntity
  8
Fills_ Pattern_Pen_No__153
  6
Continuous
100
AcDbLine
 10
1240.06724683593
 20
-771.0031699159125
 30
0.0
 11
1241.778893564442
 21
-768.599409251891
 31
0.0
  0
LINE
  5
87
330
50
100
AcDbEntity
  8
Fills_ Pattern_Pen_No__153
  6
Continuous
100
AcDbLine
 10
1233.60146242876
 20
-764.5373855087427
 30
0.0
 11
1235.313109157272
 21
-762.1336248447212
 31
0.0
  0
LINE
  5
88
330
50
100
AcDbEntity
  8
Fills_ Pattern_Pen_No__153
  6
Continuous
100
AcDbLine
 10
1241.778893564442
 20
-768.599409251891
 30
0.0
 11
1243.49139226708
 21
-766.19625548099
 31
0.0
  0
LINE
  5
89
330
50
100
AcDbEntity
  8
Fills_ Pattern_Pen_No__153
  6
Continuous
100
AcDbLine
 10
1235.313109157272
 20
-762.1336248447212
 30
0.0
 11
1237.02560785991
 21
-759.7304710738202
 31
0.0
  0
LINE
  5
8A
330
50
100
AcDbEntity
  8
Fills_ Pattern_Pen_No__153
  6
Continuous
100
AcDbLine
 10
1243.49139226708
 20
-766.19625548099
 30
0.0
 11
1245.20474272866
 21
-763.7937089051797
 31
0.0
  0
LINE
  5
8B
330
50
100
AcDbEntity
  8
Fills_ Pattern_Pen_No__153
  6
Continuous
100
AcDbLine
 10
1237.02560785991
 20
-759.7304710738202
 30
0.0
 11
1237.813545256038
 21
-758.6255854503171
 31
0.0
  0
LINE
  5
8C
330
50
100
AcDbEntity
  8
Fills_ Pattern_Pen_No__153
  6
Continuous
100
AcDbLine
 10
1245.20474272866
 20
-763.7937089051797
 30
0.0
 11
1246.918944733893
 21
-761.3917698263548
 31
0.0
  0
LINE
  5
8D
330
50
100
AcDbEntity
  8
Fills_ Pattern_Pen_No__153
  6
Continuous
100
AcDbLine
 10
1246.918944733893
 20
-761.3917698263548
 30
0.0
 11
1247.685047349153
 21
-760.3205318346713
 31
0.0
  0
LINE
  5
8E
330
50
100
AcDbEntity
  8
Fills_ Pattern_Pen_No__153
  6
Continuous
100
AcDbLine
 10
1234.529338554283
 20
-781.9244300523979
 30
0.0
 11
1236.084901790117
 21
-779.5223534565719
 31
0.0
  0
LINE
  5
8F
330
50
100
AcDbEntity
  8
Fills_ Pattern_Pen_No__153
  6
Continuous
100
AcDbLine
 10
1236.084901790117
 20
-779.5223534565719
 30
0.0
 11
1237.665767138799
 21
-777.1368527329857
 31
0.0
  0
LINE
  5
90
330
50
100
AcDbEntity
  8
Fills_ Pattern_Pen_No__153
  6
Continuous
100
AcDbLine
 10
1230.137033051647
 20
-772.2750425244067
 30
0.0
 11
1231.199982731629
 21
-770.6710683258159
 31
0.0
  0
LINE
  5
91
330
50
100
AcDbEntity
  8
Fills_ Pattern_Pen_No__153
  6
Continuous
100
AcDbLine
 10
1237.665767138799
 20
-777.1368527329857
 30
0.0
 11
1239.271757986495
 21
-774.7681943891109
 31
0.0
  0
LINE
  5
92
330
50
100
AcDbEntity
  8
Fills_ Pattern_Pen_No__153
  6
Continuous
100
AcDbLine
 10
1231.199982731629
 20
-770.6710683258159
 30
0.0
 11
1232.805973579325
 21
-768.3024099819411
 31
0.0
  0
LINE
  5
93
330
50
100
AcDbEntity
  8
Fills_ Pattern_Pen_No__153
  6
Continuous
100
AcDbLine
 10
1239.271757986495
 20
-774.7681943891109
 30
0.0
 11
1240.902694912359
 21
-772.4166430507929
 31
0.0
  0
LINE
  5
94
330
50
100
AcDbEntity
  8
Fills_ Pattern_Pen_No__153
  6
Continuous
100
AcDbLine
 10
1232.805973579325
 20
-768.3024099819411
 30
0.0
 11
1234.436910505189
 21
-765.950858643623
 31
0.0
  0
LINE
  5
95
330
50
100
AcDbEntity
  8
Fills_ Pattern_Pen_No__153
  6
Continuous
100
AcDbLine
 10
1240.902694912359
 20
-772.4166430507929
 30
0.0
 11
1242.558395708575
 21
-770.0824614326874
 31
0.0
  0
LINE
  5
96
330
50
100
AcDbEntity
  8
Fills_ Pattern_Pen_No__153
  6
Continuous
100
AcDbLine
 10
1234.436910505189
 20
-765.950858643623
 30
0.0
 11
1236.092611301406
 21
-763.6166770255175
 31
0.0
  0
LINE
  5
97
330
50
100
AcDbEntity
  8
Fills_ Pattern_Pen_No__153
  6
Continuous
100
AcDbLine
 10
1242.558395708575
 20
-770.0824614326874
 30
0.0
 11
1244.238675400715
 21
-767.7659103089101
 31
0.0
  0
LINE
  5
98
330
50
100
AcDbEntity
  8
Fills_ Pattern_Pen_No__153
  6
Continuous
100
AcDbLine
 10
1236.092611301406
 20
-763.6166770255175
 30
0.0
 11
1237.772890993545
 21
-761.3001259017401
 31
0.0
  0
LINE
  5
99
330
50
100
AcDbEntity
  8
Fills_ Pattern_Pen_No__153
  6
Continuous
100
AcDbLine
 10
1244.238675400715
 20
-767.7659103089101
 30
0.0
 11
1245.943346268403
 21
-765.4672484839022
 31
0.0
  0
LINE
  5
9A
330
50
100
AcDbEntity
  8
Fills_ Pattern_Pen_No__153
  6
Continuous
100
AcDbLine
 10
1237.772890993545
 20
-761.3001259017401
 30
0.0
 11
1239.477561861234
 21
-759.0014640767324
 31
0.0
  0
LINE
  5
9B
330
50
100
AcDbEntity
  8
Fills_ Pattern_Pen_No__153
  6
Continuous
100
AcDbLine
 10
1245.943346268403
 20
-765.4672484839022
 30
0.0
 11
1246.512949962044
 21
-764.7158970363306
 31
0.0
  0
LINE
  5
9C
330
50
100
AcDbEntity
  8
Fills_ Pattern_Pen_No__153
  6
Continuous
100
AcDbLine
 10
1239.477561861234
 20
-759.0014640767324
 30
0.0
 11
1239.762517529661
 21
-758.6255854503171
 31
0.0
  0
LINE
  5
9D
330
50
100
AcDbEntity
  8
Fills_ Pattern_Pen_No__153
  6
Continuous
100
AcDbLine
 10
1230.137033051647
 20
-788.6255854503166
 30
0.0
 11
1231.562428011547
 21
-786.4662161066777
 31
0.0
  0
LINE
  5
9E
330
50
100
AcDbEntity
  8
Fills_ Pattern_Pen_No__153
  6
Continuous
100
AcDbLine
 10
1231.562428011547
 20
-786.4662161066777
 30
0.0
 11
1233.028191180328
 21
-784.296543856647
 31
0.0
  0
LINE
  5
9F
330
50
100
AcDbEntity
  8
Fills_ Pattern_Pen_No__153
  6
Continuous
100
AcDbLine
 10
1237.268135512302
 20
-780.056599524673
 30
0.0
 11
1238.647364472704
 21
-777.9973493814021
 31
0.0
  0
LINE
  5
A0
330
50
100
AcDbEntity
  8
Fills_ Pattern_Pen_No__153
  6
Continuous
100
AcDbLine
 10
1230.802351105132
 20
-773.5908151175033
 30
0.0
 11
1232.181580065535
 21
-771.5315649742323
 31
0.0
  0
LINE
  5
A1
330
50
100
AcDbEntity
  8
Fills_ Pattern_Pen_No__153
  6
Continuous
100
AcDbLine
 10
1238.647364472704
 20
-777.9973493814021
 30
0.0
 11
1240.054508337011
 21
-775.9570724828128
 31
0.0
  0
LINE
  5
A2
330
50
100
AcDbEntity
  8
Fills_ Pattern_Pen_No__153
  6
Continuous
100
AcDbLine
 10
1232.181580065535
 20
-771.5315649742323
 30
0.0
 11
1233.588723929841
 21
-769.4912880756429
 31
0.0
  0
LINE
  5
A3
330
50
100
AcDbEntity
  8
Fills_ Pattern_Pen_No__153
  6
Continuous
100
AcDbLine
 10
1240.054508337011
 20
-775.9570724828128
 30
0.0
 11
1241.489306139708
 21
-773.9361472137469
 31
0.0
  0
LINE
  5
A4
330
50
100
AcDbEntity
  8
Fills_ Pattern_Pen_No__153
  6
Continuous
100
AcDbLine
 10
1233.588723929841
 20
-769.4912880756429
 30
0.0
 11
1235.023521732539
 21
-767.470362806577
 31
0.0
  0
LINE
  5
A5
330
50
100
AcDbEntity
  8
Fills_ Pattern_Pen_No__153
  6
Continuous
100
AcDbLine
 10
1241.489306139708
 20
-773.9361472137469
 30
0.0
 11
1242.951491786649
 21
-771.93494837014
 31
0.0
  0
LINE
  5
A6
330
50
100
AcDbEntity
  8
Fills_ Pattern_Pen_No__153
  6
Continuous
100
AcDbLine
 10
1235.023521732539
 20
-767.470362806577
 30
0.0
 11
1236.485707379479
 21
-765.4691639629702
 31
0.0
  0
LINE
  5
A7
330
50
100
AcDbEntity
  8
Fills_ Pattern_Pen_No__153
  6
Continuous
100
AcDbLine
 10
1242.951491786649
 20
-771.93494837014
 30
0.0
 11
1244.440794104404
 21
-769.9538470895125
 31
0.0
  0
LINE
  5
A8
330
50
100
AcDbEntity
  8
Fills_ Pattern_Pen_No__153
  6
Continuous
100
AcDbLine
 10
1236.485707379479
 20
-765.4691639629702
 30
0.0
 11
1237.975009697234
 21
-763.4880626823425
 31
0.0
  0
LINE
  5
A9
330
50
100
AcDbEntity
  8
Fills_ Pattern_Pen_No__153
  6
Continuous
100
AcDbLine
 10
1230.137033051647
 20
-758.8475972640627
 30
0.0
 11
1230.303931489407
 21
-758.6255854503171
 31
0.0
  0
LINE
  5
AA
330
50
100
AcDbEntity
  8
Fills_ Pattern_Pen_No__153
  6
Continuous
100
AcDbLine
 10
1244.440794104404
 20
-769.9538470895125
 30
0.0
 11
1245.47165031021
 21
-768.6207707307065
 31
0.0
  0
LINE
  5
AB
330
50
100
AcDbEntity
  8
Fills_ Pattern_Pen_No__153
  6
Continuous
100
AcDbLine
 10
1237.975009697234
 20
-763.4880626823425
 30
0.0
 11
1239.49115248338
 21
-761.5274263749689
 31
0.0
  0
LINE
  5
AC
330
50
100
AcDbEntity
  8
Fills_ Pattern_Pen_No__153
  6
Continuous
100
AcDbLine
 10
1239.49115248338
 20
-761.5274263749689
 30
0.0
 11
1241.033854557725
 21
-759.5876186557386
 31
0.0
  0
LINE
  5
AD
330
50
100
AcDbEntity
  8
Fills_ Pattern_Pen_No__153
  6
Continuous
100
AcDbLine
 10
1241.033854557725
 20
-759.5876186557386
 30
0.0
 11
1241.820569375666
 21
-758.6255854503171
 31
0.0
  0
LINE
  5
AE
330
50
100
AcDbEntity
  8
Fills_ Pattern_Pen_No__153
  6
Continuous
100
AcDbLine
 10
1231.632707321148
 20
-788.6255854503166
 30
0.0
 11
1231.89688011105
 21
-788.2073668301775
 31
0.0
  0
LINE
  5
AF
330
50
100
AcDbEntity
  8
Fills_ Pattern_Pen_No__153
  6
Continuous
100
AcDbLine
 10
1231.89688011105
 20
-788.2073668301775
 30
0.0
 11
1233.062981952215
 21
-786.4088131147495
 31
0.0
  0
LINE
  5
B0
330
50
100
AcDbEntity
  8
Fills_ Pattern_Pen_No__153
  6
Continuous
100
AcDbLine
 10
1233.062981952215
 20
-786.4088131147495
 30
0.0
 11
1234.250300997897
 21
-784.6241948208251
 31
0.0
  0
LINE
  5
B1
330
50
100
AcDbEntity
  8
Fills_ Pattern_Pen_No__153
  6
Continuous
100
AcDbLine
 10
1234.250300997897
 20
-784.6241948208251
 30
0.0
 11
1235.458670733154
 21
-782.8537622312685
 31
0.0
  0
LINE
  5
B2
330
50
100
AcDbEntity
  8
Fills_ Pattern_Pen_No__153
  6
Continuous
100
AcDbLine
 10
1238.540266341837
 20
-765.8528998807985
 30
0.0
 11
1239.201499831622
 21
-764.9886519361683
 31
0.0
  0
LINE
  5
B3
330
50
100
AcDbEntity
  8
Fills_ Pattern_Pen_No__153
  6
Continuous
100
AcDbLine
 10
1232.074481934667
 20
-759.3871154736289
 30
0.0
 11
1232.657126253372
 21
-758.6255854503171
 31
0.0
  0
LINE
  5
B4
330
50
100
AcDbEntity
  8
Fills_ Pattern_Pen_No__153
  6
Continuous
100
AcDbLine
 10
1239.201499831622
 20
-764.9886519361683
 30
0.0
 11
1239.870512067854
 21
-764.1304113722341
 31
0.0
  0
LINE
  5
B5
330
50
100
AcDbEntity
  8
Fills_ Pattern_Pen_No__153
  6
Continuous
100
AcDbLine
 10
1239.870512067854
 20
-764.1304113722341
 30
0.0
 11
1240.547248475783
 21
-763.2782482000687
 31
0.0
  0
LINE
  5
B6
330
50
100
AcDbEntity
  8
Fills_ Pattern_Pen_No__153
  6
Continuous
100
AcDbLine
 10
1240.547248475783
 20
-763.2782482000687
 30
0.0
 11
1241.231653850557
 21
-762.4322319349822
 31
0.0
  0
LINE
  5
B7
330
50
100
AcDbEntity
  8
Fills_ Pattern_Pen_No__153
  6
Continuous
100
AcDbLine
 10
1241.231653850557
 20
-762.4322319349822
 30
0.0
 11
1241.923672361729
 21
-761.5924315908489
 31
0.0
  0
LINE
  5
B8
330
50
100
AcDbEntity
  8
Fills_ Pattern_Pen_No__153
  6
Continuous
100
AcDbLine
 10
1241.923672361729
 20
-761.5924315908489
 30
0.0
 11
1242.623247557808
 21
-760.7589156744794
 31
0.0
  0
LINE
  5
B9
330
50
100
AcDbEntity
  8
Fills_ Pattern_Pen_No__153
  6
Continuous
100
AcDbLine
 10
1242.623247557808
 20
-760.7589156744794
 30
0.0
 11
1243.330322370867
 21
-759.9317521800312
 31
0.0
  0
LINE
  5
BA
330
50
100
AcDbEntity
  8
Fills_ Pattern_Pen_No__153
  6
Continuous
100
AcDbLine
 10
1243.330322370867
 20
-759.9317521800312
 30
0.0
 11
1244.044839121197
 21
-759.1110085834621
 31
0.0
  0
LINE
  5
BB
330
50
100
AcDbEntity
  8
Fills_ Pattern_Pen_No__153
  6
Continuous
100
AcDbLine
 10
1244.044839121197
 20
-759.1110085834621
 30
0.0
 11
1244.535239506081
 21
-758.6255854503171
 31
0.0
  0
LINE
  5
BC
330
50
100
AcDbEntity
  8
Fills_ Pattern_Pen_No__153
  6
Continuous
100
AcDbLine
 10
1234.198366946797
 20
-788.6255854503166
 30
0.0
 11
1234.245021213409
 21
-788.5504171584174
 31
0.0
  0
LINE
  5
BD
330
50
100
AcDbEntity
  8
Fills_ Pattern_Pen_No__153
  6
Continuous
100
AcDbLine
 10
1234.245021213409
 20
-788.5504171584174
 30
0.0
 11
1234.777826887638
 21
-787.7053718109463
 31
0.0
  0
LINE
  5
BE
330
50
100
AcDbEntity
  8
Fills_ Pattern_Pen_No__153
  6
Continuous
100
AcDbLine
 10
1234.777826887638
 20
-787.7053718109463
 30
0.0
 11
1235.316596300386
 21
-786.8641161746142
 31
0.0
  0
LINE
  5
BF
330
50
100
AcDbEntity
  8
Fills_ Pattern_Pen_No__153
  6
Continuous
100
AcDbLine
 10
1235.316596300386
 20
-786.8641161746142
 30
0.0
 11
1235.861302497575
 21
-786.0266923365738
 31
0.0
  0
LINE
  5
C0
330
50
100
AcDbEntity
  8
Fills_ Pattern_Pen_No__153
  6
Continuous
100
AcDbLine
 10
1235.861302497575
 20
-786.0266923365738
 30
0.0
 11
1236.411918228114
 21
-785.1931421922771
 31
0.0
  0
LINE
  5
C1
330
50
100
AcDbEntity
  8
Fills_ Pattern_Pen_No__153
  6
Continuous
100
AcDbLine
 10
1236.411918228114
 20
-785.1931421922771
 30
0.0
 11
1236.968415945265
 21
-784.3635074433794
 31
0.0
  0
LINE
  5
C2
330
50
100
AcDbEntity
  8
Fills_ Pattern_Pen_No__153
  6
Continuous
100
AcDbLine
 10
1230.137033051647
 20
-778.4427624840872
 30
0.0
 11
1230.502631538095
 21
-777.8977230362095
 31
0.0
  0
LINE
  5
C3
330
50
100
AcDbEntity
  8
Fills_ Pattern_Pen_No__153
  6
Continuous
100
AcDbLine
 10
1238.197713973015
 20
-785.5928054711297
 30
0.0
 11
1237.678673749207
 21
-787.2786830577967
 31
0.0
  0
LINE
  5
C4
330
50
100
AcDbEntity
  8
Fills_ Pattern_Pen_No__153
  6
Continuous
100
AcDbLine
 10
1231.731929565845
 20
-779.1270210639599
 30
0.0
 11
1231.212889342037
 21
-780.8128986506269
 31
0.0
  0
LINE
  5
C5
330
50
100
AcDbEntity
  8
Fills_ Pattern_Pen_No__153
  6
Continuous
100
AcDbLine
 10
1237.678673749207
 20
-787.2786830577967
 30
0.0
 11
1237.197736856751
 21
-788.6255854503166
 31
0.0
  0
LINE
  5
C6
330
50
100
AcDbEntity
  8
Fills_ Pattern_Pen_No__153
  6
Continuous
100
AcDbLine
 10
1231.212889342037
 20
-780.8128986506269
 30
0.0
 11
1230.619711458271
 21
-782.4741409536543
 31
0.0
  0
LINE
  5
C7
330
50
100
AcDbEntity
  8
Fills_ Pattern_Pen_No__153
  6
Continuous
100
AcDbLine
 10
1230.619711458271
 20
-782.4741409536543
 30
0.0
 11
1230.137033051647
 21
-783.6576276364052
 31
0.0
  0
LINE
  5
C8
330
50
100
AcDbEntity
  8
Fills_ Pattern_Pen_No__153
  6
Continuous
100
AcDbLine
 10
1239.69496837025
 20
-787.0900598683638
 30
0.0
 11
1239.346714252015
 21
-787.9418802427919
 31
0.0
  0
LINE
  5
C9
330
50
100
AcDbEntity
  8
Fills_ Pattern_Pen_No__153
  6
Continuous
100
AcDbLine
 10
1233.22918396308
 20
-780.624275461194
 30
0.0
 11
1232.880929844845
 21
-781.4760958356219
 31
0.0
  0
LINE
  5
CA
330
50
100
AcDbEntity
  8
Fills_ Pattern_Pen_No__153
  6
Continuous
100
AcDbLine
 10
1239.346714252015
 20
-787.9418802427919
 30
0.0
 11
1239.054075850462
 21
-788.6255854503166
 31
0.0
  0
LINE
  5
CB
330
50
100
AcDbEntity
  8
Fills_ Pattern_Pen_No__153
  6
Continuous
100
AcDbLine
 10
1232.880929844845
 20
-781.4760958356219
 30
0.0
 11
1232.5188169031
 21
-782.3221177612118
 31
0.0
  0
LINE
  5
CC
330
50
100
AcDbEntity
  8
Fills_ Pattern_Pen_No__153
  6
Continuous
100
AcDbLine
 10
1232.5188169031
 20
-782.3221177612118
 30
0.0
 11
1232.142941639137
 21
-783.1621157773395
 31
0.0
  0
LINE
  5
CD
330
50
100
AcDbEntity
  8
Fills_ Pattern_Pen_No__153
  6
Continuous
100
AcDbLine
 10
1232.142941639137
 20
-783.1621157773395
 30
0.0
 11
1231.75340422184
 21
-783.9958660287233
 31
0.0
  0
LINE
  5
CE
330
50
100
AcDbEntity
  8
Fills_ Pattern_Pen_No__153
  6
Continuous
100
AcDbLine
 10
1231.75340422184
 20
-783.9958660287233
 30
0.0
 11
1231.350308460986
 21
-784.8231463250799
 31
0.0
  0
LINE
  5
CF
330
50
100
AcDbEntity
  8
Fills_ Pattern_Pen_No__153
  6
Continuous
100
AcDbLine
 10
1231.350308460986
 20
-784.8231463250799
 30
0.0
 11
1230.933761779587
 21
-785.643736200336
 31
0.0
  0
LINE
  5
D0
330
50
100
AcDbEntity
  8
Fills_ Pattern_Pen_No__153
  6
Continuous
100
AcDbLine
 10
1230.933761779587
 20
-785.643736200336
 30
0.0
 11
1230.503875185254
 21
-786.4574169713827
 31
0.0
  0
LINE
  5
D1
330
50
100
AcDbEntity
  8
Fills_ Pattern_Pen_No__153
  6
Continuous
100
AcDbLine
 10
1230.503875185254
 20
-786.4574169713827
 30
0.0
 11
1230.137033051647
 21
-787.1251450623252
 31
0.0
  0
LINE
  5
D2
330
50
100
AcDbEntity
  8
Fills_ Pattern_Pen_No__153
  6
Continuous
100
AcDbLine
 10
1233.028191180328
 20
-784.2965438566469
 30
0.0
 11
1233.214488478698
 21
-783.9991802036795
 31
0.0
  0
LINE
  5
D3
330
50
100
AcDbEntity
  8
Fills_ Pattern_Pen_No__153
  6
Continuous
100
AcDbLine
 10
1233.214488478698
 20
-783.9991802036795
 30
0.0
 11
1233.4011710125
 21
-783.7020582471375
 31
0.0
  0
LINE
  5
D4
330
50
100
AcDbEntity
  8
Fills_ Pattern_Pen_No__153
  6
Continuous
100
AcDbLine
 10
1233.4011710125
 20
-783.7020582471375
 30
0.0
 11
1233.588238468165
 21
-783.4051784860942
 31
0.0
  0
LINE
  5
D5
330
50
100
AcDbEntity
  8
Fills_ Pattern_Pen_No__153
  6
Continuous
100
AcDbLine
 10
1233.588238468165
 20
-783.4051784860942
 30
0.0
 11
1233.775690531476
 21
-783.1085414192159
 31
0.0
  0
LINE
  5
D6
330
50
100
AcDbEntity
  8
Fills_ Pattern_Pen_No__153
  6
Continuous
100
AcDbLine
 10
1233.775690531476
 20
-783.1085414192159
 30
0.0
 11
1233.963526887574
 21
-782.8121475447616
 31
0.0
  0
LINE
  5
D7
330
50
100
AcDbEntity
  8
Fills_ Pattern_Pen_No__153
  6
Continuous
100
AcDbLine
 10
1233.963526887574
 20
-782.8121475447616
 30
0.0
 11
1234.15174722095
 21
-782.5159973605815
 31
0.0
  0
LINE
  5
D8
330
50
100
AcDbEntity
  8
Fills_ Pattern_Pen_No__153
  6
Continuous
100
AcDbLine
 10
1234.15174722095
 20
-782.5159973605815
 30
0.0
 11
1234.340351215452
 21
-782.2200913641166
 31
0.0
  0
LINE
  5
D9
330
50
100
AcDbEntity
  8
Fills_ Pattern_Pen_No__153
  6
Continuous
100
AcDbLine
 10
1234.340351215452
 20
-782.2200913641166
 30
0.0
 11
1234.529338554283
 21
-781.9244300523979
 31
0.0
  0
ENDBLK
  5
52
330
50
100
AcDbEntity
  8
0
100
AcDbBlockEnd
  0
BLOCK
  5
163
330
162
100
AcDbEntity
  8
0
100
AcDbBlockBegin
  2
PolyLine_1
 70
     0
 10
1080.529783473642
 20
-643.9566108934417
 30
0.0
  3
PolyLine_1
  1

  0
CIRCLE
  5
165
330
162
100
AcDbEntity
  8
Documentation_ Floor_Pen_No__1
  6
Continuous
100
AcDbCircle
 10
1087.5566663702
 20
-643.9566108934417
 30
0.0
 40
0.5
  0
HATCH
  5
166
330
162
100
AcDbEntity
  8
Documentation_ Floor
  6
Continuous
 62
    18
420
        0
370
     0
100
AcDbHatch
 10
0.0
 20
0.0
 30
0.0
210
0.0
220
0.0
230
1.0
  2
SOLID
 70
     1
 71
     0
 91
        1
 92
        3
 72
     0
 73
     1
 93
       16
 10
1088.0566663702
 20
-643.9566108934417
 10
1088.018606136456
 20
-643.7652691772591
 10
1087.910219760793
 20
-643.6030575028484
 10
1087.748008086383
 20
-643.4946711271861
 10
1087.5566663702
 20
-643.4566108934417
 10
1087.365324654017
 20
-643.4946711271861
 10
1087.203112979607
 20
-643.6030575028484
 10
1087.094726603944
 20
-643.7652691772591
 10
1087.0566663702
 20
-643.9566108934417
 10
1087.094726603944
 20
-644.1479526096242
 10
1087.203112979607
 20
-644.3101642840349
 10
1087.365324654017
 20
-644.4185506596973
 10
1087.5566663702
 20
-644.4566108934416
 10
1087.748008086383
 20
-644.4185506596973
 10
1087.910219760793
 20
-644.3101642840349
 10
1088.018606136456
 20
-644.1479526096242
 97
        0
 75
     0
 76
     1
 98
        0
450
        0
451
        0
460
0.0
461
0.0
452
        1
462
0.0
453
        0
470

  0
LWPOLYLINE
  5
168
330
162
100
AcDbEntity
  8
Documentation_ Floor_Pen_No__1
  6
Continuous
100
AcDbPolyline
 90
        2
 70
   128
 43
0.0
 10
1080.529783473642
 20
-643.9566108934417
 10
1087.0566663702
 20
-643.9566108934417
  0
ENDBLK
  5
164
330
162
100
AcDbEntity
  8
0
100
AcDbBlockEnd
  0
BLOCK
  5
16B
330
16A
100
AcDbEntity
  8
0
100
AcDbBlockBegin
  2
PolyLine_2
 70
     0
 10
1262.085189328528
 20
-835.435982954946
 30
0.0
  3
PolyLine_2
  1

  0
CIRCLE
  5
16D
330
16A
100
AcDbEntity
  8
Documentation_ Floor_Pen_No__1
  6
Continuous
100
AcDbCircle
 10
1200.92421317401
 20
-792.0772173938289
 30
0.0
 40
0.5
  0
HATCH
  5
16E
330
16A
100
AcDbEntity
  8
Documentation_ Floor
  6
Continuous
 62
    18
420
        0
370
     0
100
AcDbHatch
 10
0.0
 20
0.0
 30
0.0
210
0.0
220
0.0
230
1.0
  2
SOLID
 70
     1
 71
     0
 91
        1
 92
        3
 72
     0
 73
     1
 93
       16
 10
1201.42421317401
 20
-792.0772173938289
 10
1201.386152940266
 20
-791.8858756776463
 10
1201.277766564604
 20
-791.7236640032356
 10
1201.115554890193
 20
-791.6152776275732
 10
1200.92421317401
 20
-791.577217393829
 10
1200.732871457828
 20
-791.6152776275732
 10
1200.570659783417
 20
-791.7236640032356
 10
1200.462273407755
 20
-791.8858756776463
 10
1200.424213174011
 20
-792.0772173938289
 10
1200.462273407755
 20
-792.2685591100113
 10
1200.570659783417
 20
-792.4307707844222
 10
1200.732871457828
 20
-792.5391571600845
 10
1200.92421317401
 20
-792.5772173938288
 10
1201.115554890193
 20
-792.5391571600845
 10
1201.277766564604
 20
-792.4307707844222
 10
1201.386152940266
 20
-792.2685591100113
 97
        0
 75
     0
 76
     1
 98
        0
450
        0
451
        0
460
0.0
461
0.0
452
        1
462
0.0
453
        0
470

  0
LWPOLYLINE
  5
16F
330
16A
100
AcDbEntity
  8
Documentation_ Floor_Pen_No__1
  6
Continuous
100
AcDbPolyline
 90
        3
 70
   128
 43
0.0
 10
1262.085189328528
 20
-835.435982954946
 10
1200.92421317401
 20
-835.435982954946
 10
1200.92421317401
 20
-792.5772173938288
  0
ENDBLK
  5
16C
330
16A
100
AcDbEntity
  8
0
100
AcDbBlockEnd
  0
BLOCK
  5
172
330
171
100
AcDbEntity
  8
0
100
AcDbBlockBegin
  2
PolyLine_3
 70
     0
 10
1262.085189328528
 20
-859.1328274363542
 30
0.0
  3
PolyLine_3
  1

  0
CIRCLE
  5
174
330
171
100
AcDbEntity
  8
Documentation_ Floor_Pen_No__1
  6
Continuous
100
AcDbCircle
 10
1173.018487383942
 20
-859.1328274363542
 30
0.0
 40
0.5
  0
HATCH
  5
175
330
171
100
AcDbEntity
  8
Documentation_ Floor
  6
Continuous
 62
    18
420
        0
370
     0
100
AcDbHatch
 10
0.0
 20
0.0
 30
0.0
210
0.0
220
0.0
230
1.0
  2
SOLID
 70
     1
 71
     0
 91
        1
 92
        3
 72
     0
 73
     1
 93
       16
 10
1173.518487383942
 20
-859.1328274363542
 10
1173.480427150198
 20
-858.9414857201717
 10
1173.372040774535
 20
-858.779274045761
 10
1173.209829100124
 20
-858.6708876700987
 10
1173.018487383942
 20
-858.6328274363543
 10
1172.827145667759
 20
-858.6708876700987
 10
1172.664933993349
 20
-858.779274045761
 10
1172.556547617686
 20
-858.9414857201717
 10
1172.518487383942
 20
-859.1328274363542
 10
1172.556547617686
 20
-859.3241691525367
 10
1172.664933993349
 20
-859.4863808269476
 10
1172.827145667759
 20
-859.5947672026099
 10
1173.018487383942
 20
-859.6328274363541
 10
1173.209829100124
 20
-859.5947672026099
 10
1173.372040774535
 20
-859.4863808269476
 10
1173.480427150198
 20
-859.3241691525367
 97
        0
 75
     0
 76
     1
 98
        0
450
        0
451
        0
460
0.0
461
0.0
452
        1
462
0.0
453
        0
470

  0
LWPOLYLINE
  5
176
330
171
100
AcDbEntity
  8
Documentation_ Floor_Pen_No__1
  6
Continuous
100
AcDbPolyline
 90
        2
 70
   128
 43
0.0
 10
1262.085189328528
 20
-859.1328274363542
 10
1173.518487383942
 20
-859.1328274363542
  0
ENDBLK
  5
173
330
171
100
AcDbEntity
  8
0
100
AcDbBlockEnd
  0
BLOCK
  5
179
330
178
100
AcDbEntity
  8
0
100
AcDbBlockBegin
  2
PolyLine_4
 70
     0
 10
1262.085189328528
 20
-875.1799588549955
 30
0.0
  3
PolyLine_4
  1

  0
CIRCLE
  5
17B
330
178
100
AcDbEntity
  8
Documentation_ Floor_Pen_No__1
  6
Continuous
100
AcDbCircle
 10
1188.137033051641
 20
-875.1799588549955
 30
0.0
 40
0.5
  0
HATCH
  5
17C
330
178
100
AcDbEntity
  8
Documentation_ Floor
  6
Continuous
 62
    18
420
        0
370
     0
100
AcDbHatch
 10
0.0
 20
0.0
 30
0.0
210
0.0
220
0.0
230
1.0
  2
SOLID
 70
     1
 71
     0
 91
        1
 92
        3
 72
     0
 73
     1
 93
       16
 10
1188.63703305164
 20
-875.1799588549955
 10
1188.598972817896
 20
-874.988617138813
 10
1188.490586442234
 20
-874.8264054644021
 10
1188.328374767823
 20
-874.7180190887398
 10
1188.137033051641
 20
-874.6799588549954
 10
1187.945691335458
 20
-874.7180190887398
 10
1187.783479661047
 20
-874.8264054644021
 10
1187.675093285385
 20
-874.988617138813
 10
1187.637033051641
 20
-875.1799588549955
 10
1187.675093285385
 20
-875.3713005711778
 10
1187.783479661047
 20
-875.5335122455887
 10
1187.945691335458
 20
-875.641898621251
 10
1188.137033051641
 20
-875.6799588549952
 10
1188.328374767823
 20
-875.641898621251
 10
1188.490586442234
 20
-875.5335122455887
 10
1188.598972817896
 20
-875.3713005711778
 97
        0
 75
     0
 76
     1
 98
        0
450
        0
451
        0
460
0.0
461
0.0
452
        1
462
0.0
453
        0
470

  0
LWPOLYLINE
  5
17D
330
178
100
AcDbEntity
  8
Documentation_ Floor_Pen_No__1
  6
Continuous
100
AcDbPolyline
 90
        2
 70
   128
 43
0.0
 10
1262.085189328528
 20
-875.1799588549955
 10
1188.63703305164
 20
-875.1799588549955
  0
ENDBLK
  5
17A
330
178
100
AcDbEntity
  8
0
100
AcDbBlockEnd
  0
BLOCK
  5
180
330
17F
100
AcDbEntity
  8
0
100
AcDbBlockBegin
  2
PolyLine_5
 70
     0
 10
1262.085189328528
 20
-890.6435582220499
 30
0.0
  3
PolyLine_5
  1

  0
CIRCLE
  5
182
330
17F
100
AcDbEntity
  8
Documentation_ Floor_Pen_No__1
  6
Continuous
100
AcDbCircle
 10
1199.569195731149
 20
-890.6435582220499
 30
0.0
 40
0.5
  0
HATCH
  5
183
330
17F
100
AcDbEntity
  8
Documentation_ Floor
  6
Continuous
 62
    18
420
        0
370
     0
100
AcDbHatch
 10
0.0
 20
0.0
 30
0.0
210
0.0
220
0.0
230
1.0
  2
SOLID
 70
     1
 71
     0
 91
        1
 92
        3
 72
     0
 73
     1
 93
       16
 10
1200.069195731149
 20
-890.6435582220499
 10
1200.031135497404
 20
-890.4522165058674
 10
1199.922749121742
 20
-890.2900048314565
 10
1199.760537447331
 20
-890.1816184557942
 10
1199.569195731149
 20
-890.1435582220498
 10
1199.377854014966
 20
-890.1816184557942
 10
1199.215642340556
 20
-890.2900048314565
 10
1199.107255964893
 20
-890.4522165058674
 10
1199.069195731149
 20
-890.6435582220499
 10
1199.107255964893
 20
-890.8348999382324
 10
1199.215642340556
 20
-890.9971116126431
 10
1199.377854014966
 20
-891.1054979883054
 10
1199.569195731149
 20
-891.1435582220498
 10
1199.760537447331
 20
-891.1054979883054
 10
1199.922749121742
 20
-890.9971116126431
 10
1200.031135497404
 20
-890.8348999382324
 97
        0
 75
     0
 76
     1
 98
        0
450
        0
451
        0
460
0.0
461
0.0
452
        1
462
0.0
453
        0
470

  0
LWPOLYLINE
  5
184
330
17F
100
AcDbEntity
  8
Documentation_ Floor_Pen_No__1
  6
Continuous
100
AcDbPolyline
 90
        2
 70
   128
 43
0.0
 10
1262.085189328528
 20
-890.6435582220499
 10
1200.069195731149
 20
-890.6435582220499
  0
ENDBLK
  5
181
330
17F
100
AcDbEntity
  8
0
100
AcDbBlockEnd
  0
BLOCK
  5
187
330
186
100
AcDbEntity
  8
0
100
AcDbBlockBegin
  2
PolyLine_6
 70
     0
 10
1262.085189328528
 20
-906.242611717178
 30
0.0
  3
PolyLine_6
  1

  0
CIRCLE
  5
189
330
186
100
AcDbEntity
  8
Documentation_ Floor_Pen_No__1
  6
Continuous
100
AcDbCircle
 10
1230.137033051648
 20
-906.242611717178
 30
0.0
 40
0.5
  0
HATCH
  5
18A
330
186
100
AcDbEntity
  8
Documentation_ Floor
  6
Continuous
 62
    18
420
        0
370
     0
100
AcDbHatch
 10
0.0
 20
0.0
 30
0.0
210
0.0
220
0.0
230
1.0
  2
SOLID
 70
     1
 71
     0
 91
        1
 92
        3
 72
     0
 73
     1
 93
       16
 10
1230.637033051648
 20
-906.242611717178
 10
1230.598972817904
 20
-906.0512700009955
 10
1230.490586442242
 20
-905.8890583265847
 10
1230.328374767831
 20
-905.7806719509224
 10
1230.137033051648
 20
-905.7426117171781
 10
1229.945691335466
 20
-905.7806719509224
 10
1229.783479661055
 20
-905.8890583265847
 10
1229.675093285393
 20
-906.0512700009955
 10
1229.637033051649
 20
-906.242611717178
 10
1229.675093285393
 20
-906.4339534333605
 10
1229.783479661055
 20
-906.5961651077712
 10
1229.945691335466
 20
-906.7045514834337
 10
1230.137033051648
 20
-906.7426117171779
 10
1230.328374767831
 20
-906.7045514834337
 10
1230.490586442242
 20
-906.5961651077712
 10
1230.598972817904
 20
-906.4339534333605
 97
        0
 75
     0
 76
     1
 98
        0
450
        0
451
        0
460
0.0
461
0.0
452
        1
462
0.0
453
        0
470

  0
LWPOLYLINE
  5
18B
330
186
100
AcDbEntity
  8
Documentation_ Floor_Pen_No__1
  6
Continuous
100
AcDbPolyline
 90
        2
 70
   128
 43
0.0
 10
1262.085189328528
 20
-906.242611717178
 10
1230.637033051648
 20
-906.242611717178
  0
ENDBLK
  5
188
330
186
100
AcDbEntity
  8
0
100
AcDbBlockEnd
  0
BLOCK
  5
18E
330
18D
100
AcDbEntity
  8
0
100
AcDbBlockBegin
  2
PolyLine_7
 70
     0
 10
1262.085189328528
 20
-772.5323856386069
 30
0.0
  3
PolyLine_7
  1

  0
CIRCLE
  5
190
330
18D
100
AcDbEntity
  8
Documentation_ Floor_Pen_No__1
  6
Continuous
100
AcDbCircle
 10
1253.743200355455
 20
-758.6255854503171
 30
0.0
 40
0.5
  0
HATCH
  5
191
330
18D
100
AcDbEntity
  8
Documentation_ Floor
  6
Continuous
 62
    18
420
        0
370
     0
100
AcDbHatch
 10
0.0
 20
0.0
 30
0.0
210
0.0
220
0.0
230
1.0
  2
SOLID
 70
     1
 71
     0
 91
        1
 92
        3
 72
     0
 73
     1
 93
       16
 10
1254.243200355455
 20
-758.6255854503171
 10
1254.20514012171
 20
-758.4342437341347
 10
1254.096753746048
 20
-758.2720320597239
 10
1253.934542071637
 20
-758.1636456840616
 10
1253.743200355455
 20
-758.1255854503173
 10
1253.551858639272
 20
-758.1636456840616
 10
1253.389646964862
 20
-758.2720320597239
 10
1253.281260589199
 20
-758.4342437341347
 10
1253.243200355455
 20
-758.6255854503171
 10
1253.281260589199
 20
-758.8169271664996
 10
1253.389646964862
 20
-758.9791388409105
 10
1253.551858639272
 20
-759.0875252165728
 10
1253.743200355455
 20
-759.1255854503172
 10
1253.934542071637
 20
-759.0875252165728
 10
1254.096753746048
 20
-758.9791388409105
 10
1254.20514012171
 20
-758.8169271664996
 97
        0
 75
     0
 76
     1
 98
        0
450
        0
451
        0
460
0.0
461
0.0
452
        1
462
0.0
453
        0
470

  0
LWPOLYLINE
  5
192
330
18D
100
AcDbEntity
  8
Documentation_ Floor_Pen_No__1
  6
Continuous
100
AcDbPolyline
 90
        3
 70
   128
 43
0.0
 10
1262.085189328528
 20
-772.5323856386069
 10
1253.743200355455
 20
-772.5323856386069
 10
1253.743200355455
 20
-759.1255854503172
  0
ENDBLK
  5
18F
330
18D
100
AcDbEntity
  8
0
100
AcDbBlockEnd
  0
BLOCK
  5
195
330
194
100
AcDbEntity
  8
0
100
AcDbBlockBegin
  2
PolyLine_8
 70
     0
 10
1262.393394022027
 20
-788.7567492979632
 30
0.0
  3
PolyLine_8
  1

  0
CIRCLE
  5
197
330
194
100
AcDbEntity
  8
Documentation_ Floor_Pen_No__1
  6
Continuous
100
AcDbCircle
 10
1241.262676059214
 20
-788.7567492979632
 30
0.0
 40
0.5
  0
HATCH
  5
198
330
194
100
AcDbEntity
  8
Documentation_ Floor
  6
Continuous
 62
    18
420
        0
370
     0
100
AcDbHatch
 10
0.0
 20
0.0
 30
0.0
210
0.0
220
0.0
230
1.0
  2
SOLID
 70
     1
 71
     0
 91
        1
 92
        3
 72
     0
 73
     1
 93
       16
 10
1241.762676059215
 20
-788.7567492979632
 10
1241.72461582547
 20
-788.5654075817807
 10
1241.616229449808
 20
-788.4031959073699
 10
1241.454017775397
 20
-788.2948095317076
 10
1241.262676059214
 20
-788.2567492979632
 10
1241.071334343032
 20
-788.2948095317076
 10
1240.909122668621
 20
-788.4031959073699
 10
1240.800736292959
 20
-788.5654075817807
 10
1240.762676059215
 20
-788.7567492979632
 10
1240.800736292959
 20
-788.9480910141458
 10
1240.909122668621
 20
-789.1103026885565
 10
1241.071334343032
 20
-789.2186890642189
 10
1241.262676059214
 20
-789.2567492979631
 10
1241.454017775397
 20
-789.2186890642189
 10
1241.616229449808
 20
-789.1103026885565
 10
1241.72461582547
 20
-788.9480910141458
 97
        0
 75
     0
 76
     1
 98
        0
450
        0
451
        0
460
0.0
461
0.0
452
        1
462
0.0
453
        0
470

  0
LWPOLYLINE
  5
199
330
194
100
AcDbEntity
  8
Documentation_ Floor_Pen_No__1
  6
Continuous
100
AcDbPolyline
 90
        2
 70
   128
 43
0.0
 10
1262.393394022027
 20
-788.7567492979632
 10
1241.762676059215
 20
-788.7567492979632
  0
ENDBLK
  5
196
330
194
100
AcDbEntity
  8
0
100
AcDbBlockEnd
  0
BLOCK
  5
1A5
330
1A4
100
AcDbEntity
  8
0
100
AcDbBlockBegin
  2
Untitled _STORY_MARKER
 70
     0
 10
0.0
 20
0.0
 30
0.0
  3
Untitled _STORY_MARKER
  1

  0
ENDBLK
  5
1A6
330
1A4
100
AcDbEntity
  8
0
100
AcDbBlockEnd
  0
BLOCK
  5
31C
330
31B
100
AcDbEntity
  8
0
100
AcDbBlockBegin
  2
Fill_2
 70
     0
 10
0.0
 20
0.0
 30
0.0
  3
Fill_2
  1

  0
INSERT
  5
31D
330
31B
100
AcDbEntity
  8
Fills_ Pattern_Pen_No__153
  6
Continuous
100
AcDbBlockReference
  2
*X12
 10
0.0
 20
0.0
 30
0.0
  0
ENDBLK
  5
31E
330
31B
100
AcDbEntity
  8
0
100
AcDbBlockEnd
  0
BLOCK
  5
320
330
31F
100
AcDbEntity
  8
0
100
AcDbBlockBegin
  2
*X12
 70
     1
 10
0.0
 20
0.0
 30
0.0
  3
*X12
  1

  0
LINE
  5
321
330
31F
100
AcDbEntity
  8
Fills_ Pattern_Pen_No__153
  6
Continuous
100
AcDbLine
 10
1574.764298484571
 20
-514.2257696462537
 30
0.0
 11
1574.506712599981
 21
-516.2864567229791
 31
0.0
  0
LINE
  5
322
330
31F
100
AcDbEntity
  8
Fills_ Pattern_Pen_No__153
  6
Continuous
100
AcDbLine
 10
1524.764298484571
 20
-464.2257696462537
 30
0.0
 11
1524.506712599981
 21
-466.2864567229791
 31
0.0
  0
LINE
  5
323
330
31F
100
AcDbEntity
  8
Fills_ Pattern_Pen_No__153
  6
Continuous
100
AcDbLine
 10
1574.764298484571
 20
-464.2257696462537
 30
0.0
 11
1574.506712599981
 21
-466.2864567229791
 31
0.0
  0
LINE
  5
324
330
31F
100
AcDbEntity
  8
Fills_ Pattern_Pen_No__153
  6
Continuous
100
AcDbLine
 10
1474.764298484571
 20
-414.2257696462537
 30
0.0
 11
1474.50671259998
 21
-416.2864567229791
 31
0.0
  0
LINE
  5
325
330
31F
100
AcDbEntity
  8
Fills_ Pattern_Pen_No__153
  6
Continuous
100
AcDbLine
 10
1524.764298484571
 20
-414.2257696462537
 30
0.0
 11
1524.506712599981
 21
-416.2864567229791
 31
0.0
  0
LINE
  5
326
330
31F
100
AcDbEntity
  8
Fills_ Pattern_Pen_No__153
  6
Continuous
100
AcDbLine
 10
1574.764298484571
 20
-414.2257696462537
 30
0.0
 11
1574.506712599981
 21
-416.2864567229791
 31
0.0
  0
LINE
  5
327
330
31F
100
AcDbEntity
  8
Fills_ Pattern_Pen_No__153
  6
Continuous
100
AcDbLine
 10
1474.764298484571
 20
-364.2257696462538
 30
0.0
 11
1474.50671259998
 21
-366.2864567229792
 31
0.0
  0
LINE
  5
328
330
31F
100
AcDbEntity
  8
Fills_ Pattern_Pen_No__153
  6
Continuous
100
AcDbLine
 10
1524.764298484571
 20
-364.2257696462538
 30
0.0
 11
1524.506712599981
 21
-366.2864567229792
 31
0.0
  0
LINE
  5
329
330
31F
100
AcDbEntity
  8
Fills_ Pattern_Pen_No__153
  6
Continuous
100
AcDbLine
 10
1574.764298484571
 20
-364.2257696462538
 30
0.0
 11
1574.506712599981
 21
-366.2864567229792
 31
0.0
  0
LINE
  5
32A
330
31F
100
AcDbEntity
  8
Fills_ Pattern_Pen_No__153
  6
Continuous
100
AcDbLine
 10
1574.506712599981
 20
-516.2864567229791
 30
0.0
 11
1577.468950272774
 21
-515.8356814249454
 31
0.0
  0
LINE
  5
32B
330
31F
100
AcDbEntity
  8
Fills_ Pattern_Pen_No__153
  6
Continuous
100
AcDbLine
 10
1524.506712599981
 20
-466.2864567229791
 30
0.0
 11
1527.468950272773
 21
-465.8356814249454
 31
0.0
  0
LINE
  5
32C
330
31F
100
AcDbEntity
  8
Fills_ Pattern_Pen_No__153
  6
Continuous
100
AcDbLine
 10
1574.506712599981
 20
-466.2864567229791
 30
0.0
 11
1577.468950272774
 21
-465.8356814249454
 31
0.0
  0
LINE
  5
32D
330
31F
100
AcDbEntity
  8
Fills_ Pattern_Pen_No__153
  6
Continuous
100
AcDbLine
 10
1474.50671259998
 20
-416.2864567229791
 30
0.0
 11
1477.468950272773
 21
-415.8356814249455
 31
0.0
  0
LINE
  5
32E
330
31F
100
AcDbEntity
  8
Fills_ Pattern_Pen_No__153
  6
Continuous
100
AcDbLine
 10
1524.506712599981
 20
-416.2864567229791
 30
0.0
 11
1527.468950272773
 21
-415.8356814249455
 31
0.0
  0
LINE
  5
32F
330
31F
100
AcDbEntity
  8
Fills_ Pattern_Pen_No__153
  6
Continuous
100
AcDbLine
 10
1574.506712599981
 20
-416.2864567229791
 30
0.0
 11
1577.468950272774
 21
-415.8356814249455
 31
0.0
  0
LINE
  5
330
330
31F
100
AcDbEntity
  8
Fills_ Pattern_Pen_No__153
  6
Continuous
100
AcDbLine
 10
1474.50671259998
 20
-366.2864567229792
 30
0.0
 11
1477.468950272773
 21
-365.8356814249456
 31
0.0
  0
LINE
  5
331
330
31F
100
AcDbEntity
  8
Fills_ Pattern_Pen_No__153
  6
Continuous
100
AcDbLine
 10
1524.506712599981
 20
-366.2864567229792
 30
0.0
 11
1527.468950272773
 21
-365.8356814249456
 31
0.0
  0
LINE
  5
332
330
31F
100
AcDbEntity
  8
Fills_ Pattern_Pen_No__153
  6
Continuous
100
AcDbLine
 10
1574.506712599981
 20
-366.2864567229792
 30
0.0
 11
1577.468950272774
 21
-365.8356814249456
 31
0.0
  0
LINE
  5
333
330
31F
100
AcDbEntity
  8
Fills_ Pattern_Pen_No__153
  6
Continuous
100
AcDbLine
 10
1577.468950272774
 20
-515.8356814249454
 30
0.0
 11
1574.764298484571
 21
-514.2257696462537
 31
0.0
  0
LINE
  5
334
330
31F
100
AcDbEntity
  8
Fills_ Pattern_Pen_No__153
  6
Continuous
100
AcDbLine
 10
1527.468950272773
 20
-465.8356814249454
 30
0.0
 11
1524.764298484571
 21
-464.2257696462537
 31
0.0
  0
LINE
  5
335
330
31F
100
AcDbEntity
  8
Fills_ Pattern_Pen_No__153
  6
Continuous
100
AcDbLine
 10
1577.468950272774
 20
-465.8356814249454
 30
0.0
 11
1574.764298484571
 21
-464.2257696462537
 31
0.0
  0
LINE
  5
336
330
31F
100
AcDbEntity
  8
Fills_ Pattern_Pen_No__153
  6
Continuous
100
AcDbLine
 10
1477.468950272773
 20
-415.8356814249455
 30
0.0
 11
1474.764298484571
 21
-414.2257696462537
 31
0.0
  0
LINE
  5
337
330
31F
100
AcDbEntity
  8
Fills_ Pattern_Pen_No__153
  6
Continuous
100
AcDbLine
 10
1527.468950272773
 20
-415.8356814249455
 30
0.0
 11
1524.764298484571
 21
-414.2257696462537
 31
0.0
  0
LINE
  5
338
330
31F
100
AcDbEntity
  8
Fills_ Pattern_Pen_No__153
  6
Continuous
100
AcDbLine
 10
1577.468950272774
 20
-415.8356814249455
 30
0.0
 11
1574.764298484571
 21
-414.2257696462537
 31
0.0
  0
LINE
  5
339
330
31F
100
AcDbEntity
  8
Fills_ Pattern_Pen_No__153
  6
Continuous
100
AcDbLine
 10
1477.468950272773
 20
-365.8356814249456
 30
0.0
 11
1474.764298484571
 21
-364.2257696462538
 31
0.0
  0
LINE
  5
33A
330
31F
100
AcDbEntity
  8
Fills_ Pattern_Pen_No__153
  6
Continuous
100
AcDbLine
 10
1527.468950272773
 20
-365.8356814249456
 30
0.0
 11
1524.764298484571
 21
-364.2257696462538
 31
0.0
  0
LINE
  5
33B
330
31F
100
AcDbEntity
  8
Fills_ Pattern_Pen_No__153
  6
Continuous
100
AcDbLine
 10
1577.468950272774
 20
-365.8356814249456
 30
0.0
 11
1574.764298484571
 21
-364.2257696462538
 31
0.0
  0
LINE
  5
33C
330
31F
100
AcDbEntity
  8
Fills_ Pattern_Pen_No__153
  6
Continuous
100
AcDbLine
 10
1506.739948267136
 20
-471.3071946819566
 30
0.0
 11
1506.303909465634
 21
-472.5668623307385
 31
0.0
  0
LINE
  5
33D
330
31F
100
AcDbEntity
  8
Fills_ Pattern_Pen_No__153
  6
Continuous
100
AcDbLine
 10
1556.739948267136
 20
-471.3071946819566
 30
0.0
 11
1556.303909465634
 21
-472.5668623307385
 31
0.0
  0
LINE
  5
33E
330
31F
100
AcDbEntity
  8
Fills_ Pattern_Pen_No__153
  6
Continuous
100
AcDbLine
 10
1506.739948267136
 20
-421.3071946819566
 30
0.0
 11
1506.303909465634
 21
-422.5668623307385
 31
0.0
  0
LINE
  5
33F
330
31F
100
AcDbEntity
  8
Fills_ Pattern_Pen_No__153
  6
Continuous
100
AcDbLine
 10
1556.739948267136
 20
-421.3071946819566
 30
0.0
 11
1556.303909465634
 21
-422.5668623307385
 31
0.0
  0
LINE
  5
340
330
31F
100
AcDbEntity
  8
Fills_ Pattern_Pen_No__153
  6
Continuous
100
AcDbLine
 10
1456.739948267136
 20
-371.3071946819566
 30
0.0
 11
1456.303909465634
 21
-372.5668623307387
 31
0.0
  0
LINE
  5
341
330
31F
100
AcDbEntity
  8
Fills_ Pattern_Pen_No__153
  6
Continuous
100
AcDbLine
 10
1506.739948267136
 20
-371.3071946819566
 30
0.0
 11
1506.303909465634
 21
-372.5668623307387
 31
0.0
  0
LINE
  5
342
330
31F
100
AcDbEntity
  8
Fills_ Pattern_Pen_No__153
  6
Continuous
100
AcDbLine
 10
1556.739948267136
 20
-371.3071946819566
 30
0.0
 11
1556.303909465634
 21
-372.5668623307387
 31
0.0
  0
LINE
  5
343
330
31F
100
AcDbEntity
  8
Fills_ Pattern_Pen_No__153
  6
Continuous
100
AcDbLine
 10
1506.303909465634
 20
-472.5668623307385
 30
0.0
 11
1506.643050755691
 21
-472.4699648192937
 31
0.0
  0
LINE
  5
344
330
31F
100
AcDbEntity
  8
Fills_ Pattern_Pen_No__153
  6
Continuous
100
AcDbLine
 10
1556.303909465634
 20
-472.5668623307385
 30
0.0
 11
1556.643050755691
 21
-472.4699648192937
 31
0.0
  0
LINE
  5
345
330
31F
100
AcDbEntity
  8
Fills_ Pattern_Pen_No__153
  6
Continuous
100
AcDbLine
 10
1506.303909465634
 20
-422.5668623307385
 30
0.0
 11
1506.643050755691
 21
-422.4699648192937
 31
0.0
  0
LINE
  5
346
330
31F
100
AcDbEntity
  8
Fills_ Pattern_Pen_No__153
  6
Continuous
100
AcDbLine
 10
1556.303909465634
 20
-422.5668623307385
 30
0.0
 11
1556.643050755691
 21
-422.4699648192937
 31
0.0
  0
LINE
  5
347
330
31F
100
AcDbEntity
  8
Fills_ Pattern_Pen_No__153
  6
Continuous
100
AcDbLine
 10
1456.303909465634
 20
-372.5668623307387
 30
0.0
 11
1456.643050755691
 21
-372.4699648192939
 31
0.0
  0
LINE
  5
348
330
31F
100
AcDbEntity
  8
Fills_ Pattern_Pen_No__153
  6
Continuous
100
AcDbLine
 10
1506.303909465634
 20
-372.5668623307387
 30
0.0
 11
1506.643050755691
 21
-372.4699648192939
 31
0.0
  0
LINE
  5
349
330
31F
100
AcDbEntity
  8
Fills_ Pattern_Pen_No__153
  6
Continuous
100
AcDbLine
 10
1556.303909465634
 20
-372.5668623307387
 30
0.0
 11
1556.643050755691
 21
-372.4699648192939
 31
0.0
  0
LINE
  5
34A
330
31F
100
AcDbEntity
  8
Fills_ Pattern_Pen_No__153
  6
Continuous
100
AcDbLine
 10
1506.643050755691
 20
-472.4699648192937
 30
0.0
 11
1506.739948267136
 21
-471.3071946819566
 31
0.0
  0
LINE
  5
34B
330
31F
100
AcDbEntity
  8
Fills_ Pattern_Pen_No__153
  6
Continuous
100
AcDbLine
 10
1556.643050755691
 20
-472.4699648192937
 30
0.0
 11
1556.739948267136
 21
-471.3071946819566
 31
0.0
  0
LINE
  5
34C
330
31F
100
AcDbEntity
  8
Fills_ Pattern_Pen_No__153
  6
Continuous
100
AcDbLine
 10
1506.643050755691
 20
-422.4699648192937
 30
0.0
 11
1506.739948267136
 21
-421.3071946819566
 31
0.0
  0
LINE
  5
34D
330
31F
100
AcDbEntity
  8
Fills_ Pattern_Pen_No__153
  6
Continuous
100
AcDbLine
 10
1556.643050755691
 20
-422.4699648192937
 30
0.0
 11
1556.739948267136
 21
-421.3071946819566
 31
0.0
  0
LINE
  5
34E
330
31F
100
AcDbEntity
  8
Fills_ Pattern_Pen_No__153
  6
Continuous
100
AcDbLine
 10
1456.643050755691
 20
-372.4699648192939
 30
0.0
 11
1456.739948267136
 21
-371.3071946819566
 31
0.0
  0
LINE
  5
34F
330
31F
100
AcDbEntity
  8
Fills_ Pattern_Pen_No__153
  6
Continuous
100
AcDbLine
 10
1506.643050755691
 20
-372.4699648192939
 30
0.0
 11
1506.739948267136
 21
-371.3071946819566
 31
0.0
  0
LINE
  5
350
330
31F
100
AcDbEntity
  8
Fills_ Pattern_Pen_No__153
  6
Continuous
100
AcDbLine
 10
1556.643050755691
 20
-372.4699648192939
 30
0.0
 11
1556.739948267136
 21
-371.3071946819566
 31
0.0
  0
LINE
  5
351
330
31F
100
AcDbEntity
  8
Fills_ Pattern_Pen_No__153
  6
Continuous
100
AcDbLine
 10
1527.841087326337
 20
-489.8485586755836
 30
0.0
 11
1530.291502562944
 21
-491.4821688333214
 31
0.0
  0
LINE
  5
352
330
31F
100
AcDbEntity
  8
Fills_ Pattern_Pen_No__153
  6
Continuous
100
AcDbLine
 10
1577.841087326337
 20
-489.8485586755836
 30
0.0
 11
1580.137033051608
 21
-491.3791891590975
 31
0.0
  0
LINE
  5
353
330
31F
100
AcDbEntity
  8
Fills_ Pattern_Pen_No__153
  6
Continuous
100
AcDbLine
 10
1527.841087326337
 20
-439.8485586755836
 30
0.0
 11
1530.291502562944
 21
-441.4821688333214
 31
0.0
  0
LINE
  5
354
330
31F
100
AcDbEntity
  8
Fills_ Pattern_Pen_No__153
  6
Continuous
100
AcDbLine
 10
1577.841087326337
 20
-439.8485586755836
 30
0.0
 11
1580.137033051608
 21
-441.3791891590975
 31
0.0
  0
LINE
  5
355
330
31F
100
AcDbEntity
  8
Fills_ Pattern_Pen_No__153
  6
Continuous
100
AcDbLine
 10
1477.841087326337
 20
-389.8485586755837
 30
0.0
 11
1480.291502562944
 21
-391.4821688333215
 31
0.0
  0
LINE
  5
356
330
31F
100
AcDbEntity
  8
Fills_ Pattern_Pen_No__153
  6
Continuous
100
AcDbLine
 10
1527.841087326337
 20
-389.8485586755837
 30
0.0
 11
1530.291502562944
 21
-391.4821688333215
 31
0.0
  0
LINE
  5
357
330
31F
100
AcDbEntity
  8
Fills_ Pattern_Pen_No__153
  6
Continuous
100
AcDbLine
 10
1577.841087326337
 20
-389.8485586755837
 30
0.0
 11
1580.137033051608
 21
-391.3791891590976
 31
0.0
  0
LINE
  5
358
330
31F
100
AcDbEntity
  8
Fills_ Pattern_Pen_No__153
  6
Continuous
100
AcDbLine
 10
1530.291502562944
 20
-491.4821688333214
 30
0.0
 11
1529.801419515623
 21
-490.3386417229049
 31
0.0
  0
LINE
  5
359
330
31F
100
AcDbEntity
  8
Fills_ Pattern_Pen_No__153
  6
Continuous
100
AcDbLine
 10
1580.137033051608
 20
-491.1217399735378
 30
0.0
 11
1579.801419515623
 21
-490.3386417229049
 31
0.0
  0
LINE
  5
35A
330
31F
100
AcDbEntity
  8
Fills_ Pattern_Pen_No__153
  6
Continuous
100
AcDbLine
 10
1530.291502562944
 20
-441.4821688333214
 30
0.0
 11
1529.801419515623
 21
-440.3386417229049
 31
0.0
  0
LINE
  5
35B
330
31F
100
AcDbEntity
  8
Fills_ Pattern_Pen_No__153
  6
Continuous
100
AcDbLine
 10
1580.137033051608
 20
-441.1217399735379
 30
0.0
 11
1579.801419515623
 21
-440.3386417229049
 31
0.0
  0
LINE
  5
35C
330
31F
100
AcDbEntity
  8
Fills_ Pattern_Pen_No__153
  6
Continuous
100
AcDbLine
 10
1480.291502562944
 20
-391.4821688333215
 30
0.0
 11
1479.801419515623
 21
-390.3386417229049
 31
0.0
  0
LINE
  5
35D
330
31F
100
AcDbEntity
  8
Fills_ Pattern_Pen_No__153
  6
Continuous
100
AcDbLine
 10
1530.291502562944
 20
-391.4821688333215
 30
0.0
 11
1529.801419515623
 21
-390.3386417229049
 31
0.0
  0
LINE
  5
35E
330
31F
100
AcDbEntity
  8
Fills_ Pattern_Pen_No__153
  6
Continuous
100
AcDbLine
 10
1580.137033051608
 20
-391.1217399735379
 30
0.0
 11
1579.801419515623
 21
-390.3386417229049
 31
0.0
  0
LINE
  5
35F
330
31F
100
AcDbEntity
  8
Fills_ Pattern_Pen_No__153
  6
Continuous
100
AcDbLine
 10
1529.801419515623
 20
-490.3386417229049
 30
0.0
 11
1527.841087326337
 21
-489.8485586755836
 31
0.0
  0
LINE
  5
360
330
31F
100
AcDbEntity
  8
Fills_ Pattern_Pen_No__153
  6
Continuous
100
AcDbLine
 10
1579.801419515623
 20
-490.3386417229049
 30
0.0
 11
1577.841087326337
 21
-489.8485586755836
 31
0.0
  0
LINE
  5
361
330
31F
100
AcDbEntity
  8
Fills_ Pattern_Pen_No__153
  6
Continuous
100
AcDbLine
 10
1529.801419515623
 20
-440.3386417229049
 30
0.0
 11
1527.841087326337
 21
-439.8485586755836
 31
0.0
  0
LINE
  5
362
330
31F
100
AcDbEntity
  8
Fills_ Pattern_Pen_No__153
  6
Continuous
100
AcDbLine
 10
1579.801419515623
 20
-440.3386417229049
 30
0.0
 11
1577.841087326337
 21
-439.8485586755836
 31
0.0
  0
LINE
  5
363
330
31F
100
AcDbEntity
  8
Fills_ Pattern_Pen_No__153
  6
Continuous
100
AcDbLine
 10
1479.801419515623
 20
-390.3386417229049
 30
0.0
 11
1477.841087326337
 21
-389.8485586755837
 31
0.0
  0
LINE
  5
364
330
31F
100
AcDbEntity
  8
Fills_ Pattern_Pen_No__153
  6
Continuous
100
AcDbLine
 10
1529.801419515623
 20
-390.3386417229049
 30
0.0
 11
1527.841087326337
 21
-389.8485586755837
 31
0.0
  0
LINE
  5
365
330
31F
100
AcDbEntity
  8
Fills_ Pattern_Pen_No__153
  6
Continuous
100
AcDbLine
 10
1579.801419515623
 20
-390.3386417229049
 30
0.0
 11
1577.841087326337
 21
-389.8485586755837
 31
0.0
  0
LINE
  5
366
330
31F
100
AcDbEntity
  8
Fills_ Pattern_Pen_No__153
  6
Continuous
100
AcDbLine
 10
1549.08954855015
 20
-501.9488030160647
 30
0.0
 11
1548.762826518603
 21
-503.9091352053501
 31
0.0
  0
LINE
  5
367
330
31F
100
AcDbEntity
  8
Fills_ Pattern_Pen_No__153
  6
Continuous
100
AcDbLine
 10
1499.08954855015
 20
-451.9488030160647
 30
0.0
 11
1498.762826518603
 21
-453.9091352053501
 31
0.0
  0
LINE
  5
368
330
31F
100
AcDbEntity
  8
Fills_ Pattern_Pen_No__153
  6
Continuous
100
AcDbLine
 10
1549.08954855015
 20
-451.9488030160647
 30
0.0
 11
1548.762826518603
 21
-453.9091352053501
 31
0.0
  0
LINE
  5
369
330
31F
100
AcDbEntity
  8
Fills_ Pattern_Pen_No__153
  6
Continuous
100
AcDbLine
 10
1499.08954855015
 20
-401.9488030160647
 30
0.0
 11
1498.762826518603
 21
-403.9091352053501
 31
0.0
  0
LINE
  5
36A
330
31F
100
AcDbEntity
  8
Fills_ Pattern_Pen_No__153
  6
Continuous
100
AcDbLine
 10
1549.08954855015
 20
-401.9488030160647
 30
0.0
 11
1548.762826518603
 21
-403.9091352053501
 31
0.0
  0
LINE
  5
36B
330
31F
100
AcDbEntity
  8
Fills_ Pattern_Pen_No__153
  6
Continuous
100
AcDbLine
 10
1548.762826518603
 20
-503.9091352053501
 30
0.0
 11
1550.559797692115
 21
-502.7656080949335
 31
0.0
  0
LINE
  5
36C
330
31F
100
AcDbEntity
  8
Fills_ Pattern_Pen_No__153
  6
Continuous
100
AcDbLine
 10
1498.762826518603
 20
-453.9091352053501
 30
0.0
 11
1500.559797692115
 21
-452.7656080949336
 31
0.0
  0
LINE
  5
36D
330
31F
100
AcDbEntity
  8
Fills_ Pattern_Pen_No__153
  6
Continuous
100
AcDbLine
 10
1548.762826518603
 20
-453.9091352053501
 30
0.0
 11
1550.559797692115
 21
-452.7656080949336
 31
0.0
  0
LINE
  5
36E
330
31F
100
AcDbEntity
  8
Fills_ Pattern_Pen_No__153
  6
Continuous
100
AcDbLine
 10
1498.762826518603
 20
-403.9091352053501
 30
0.0
 11
1500.559797692115
 21
-402.7656080949336
 31
0.0
  0
LINE
  5
36F
330
31F
100
AcDbEntity
  8
Fills_ Pattern_Pen_No__153
  6
Continuous
100
AcDbLine
 10
1548.762826518603
 20
-403.9091352053501
 30
0.0
 11
1550.559797692115
 21
-402.7656080949336
 31
0.0
  0
LINE
  5
370
330
31F
100
AcDbEntity
  8
Fills_ Pattern_Pen_No__153
  6
Continuous
100
AcDbLine
 10
1550.559797692115
 20
-502.7656080949335
 30
0.0
 11
1549.08954855015
 21
-501.9488030160647
 31
0.0
  0
LINE
  5
371
330
31F
100
AcDbEntity
  8
Fills_ Pattern_Pen_No__153
  6
Continuous
100
AcDbLine
 10
1500.559797692115
 20
-452.7656080949336
 30
0.0
 11
1499.08954855015
 21
-451.9488030160647
 31
0.0
  0
LINE
  5
372
330
31F
100
AcDbEntity
  8
Fills_ Pattern_Pen_No__153
  6
Continuous
100
AcDbLine
 10
1550.559797692115
 20
-452.7656080949336
 30
0.0
 11
1549.08954855015
 21
-451.9488030160647
 31
0.0
  0
LINE
  5
373
330
31F
100
AcDbEntity
  8
Fills_ Pattern_Pen_No__153
  6
Continuous
100
AcDbLine
 10
1500.559797692115
 20
-402.7656080949336
 30
0.0
 11
1499.08954855015
 21
-401.9488030160647
 31
0.0
  0
LINE
  5
374
330
31F
100
AcDbEntity
  8
Fills_ Pattern_Pen_No__153
  6
Continuous
100
AcDbLine
 10
1550.559797692115
 20
-402.7656080949336
 30
0.0
 11
1549.08954855015
 21
-401.9488030160647
 31
0.0
  0
LINE
  5
375
330
31F
100
AcDbEntity
  8
Fills_ Pattern_Pen_No__153
  6
Continuous
100
AcDbLine
 10
1563.313486095691
 20
-516.4994625931526
 30
0.0
 11
1563.531267959052
 21
-517.1255854503158
 31
0.0
  0
LINE
  5
376
330
31F
100
AcDbEntity
  8
Fills_ Pattern_Pen_No__153
  6
Continuous
100
AcDbLine
 10
1513.313486095691
 20
-466.4994625931525
 30
0.0
 11
1514.620374221881
 21
-470.2567659559497
 31
0.0
  0
LINE
  5
377
330
31F
100
AcDbEntity
  8
Fills_ Pattern_Pen_No__153
  6
Continuous
100
AcDbLine
 10
1563.313486095691
 20
-466.4994625931525
 30
0.0
 11
1564.620374221881
 21
-470.2567659559497
 31
0.0
  0
LINE
  5
378
330
31F
100
AcDbEntity
  8
Fills_ Pattern_Pen_No__153
  6
Continuous
100
AcDbLine
 10
1513.313486095691
 20
-416.4994625931525
 30
0.0
 11
1514.620374221881
 21
-420.2567659559496
 31
0.0
  0
LINE
  5
379
330
31F
100
AcDbEntity
  8
Fills_ Pattern_Pen_No__153
  6
Continuous
100
AcDbLine
 10
1563.313486095691
 20
-416.4994625931525
 30
0.0
 11
1564.620374221881
 21
-420.2567659559496
 31
0.0
  0
LINE
  5
37A
330
31F
100
AcDbEntity
  8
Fills_ Pattern_Pen_No__153
  6
Continuous
100
AcDbLine
 10
1463.313486095691
 20
-366.4994625931526
 30
0.0
 11
1464.620374221881
 21
-370.2567659559497
 31
0.0
  0
LINE
  5
37B
330
31F
100
AcDbEntity
  8
Fills_ Pattern_Pen_No__153
  6
Continuous
100
AcDbLine
 10
1513.313486095691
 20
-366.4994625931526
 30
0.0
 11
1514.620374221881
 21
-370.2567659559497
 31
0.0
  0
LINE
  5
37C
330
31F
100
AcDbEntity
  8
Fills_ Pattern_Pen_No__153
  6
Continuous
100
AcDbLine
 10
1563.313486095691
 20
-366.4994625931526
 30
0.0
 11
1564.620374221881
 21
-370.2567659559497
 31
0.0
  0
LINE
  5
37D
330
31F
100
AcDbEntity
  8
Fills_ Pattern_Pen_No__153
  6
Continuous
100
AcDbLine
 10
1564.620374221881
 20
-517.1255854503158
 30
0.0
 11
1564.620374221881
 21
-516.9895456404739
 31
0.0
  0
LINE
  5
37E
330
31F
100
AcDbEntity
  8
Fills_ Pattern_Pen_No__153
  6
Continuous
100
AcDbLine
 10
1514.620374221881
 20
-470.2567659559497
 30
0.0
 11
1514.620374221881
 21
-466.989545640474
 31
0.0
  0
LINE
  5
37F
330
31F
100
AcDbEntity
  8
Fills_ Pattern_Pen_No__153
  6
Continuous
100
AcDbLine
 10
1564.620374221881
 20
-470.2567659559497
 30
0.0
 11
1564.620374221881
 21
-466.989545640474
 31
0.0
  0
LINE
  5
380
330
31F
100
AcDbEntity
  8
Fills_ Pattern_Pen_No__153
  6
Continuous
100
AcDbLine
 10
1514.620374221881
 20
-420.2567659559496
 30
0.0
 11
1514.620374221881
 21
-416.989545640474
 31
0.0
  0
LINE
  5
381
330
31F
100
AcDbEntity
  8
Fills_ Pattern_Pen_No__153
  6
Continuous
100
AcDbLine
 10
1564.620374221881
 20
-420.2567659559496
 30
0.0
 11
1564.620374221881
 21
-416.989545640474
 31
0.0
  0
LINE
  5
382
330
31F
100
AcDbEntity
  8
Fills_ Pattern_Pen_No__153
  6
Continuous
100
AcDbLine
 10
1464.620374221881
 20
-370.2567659559497
 30
0.0
 11
1464.620374221881
 21
-366.989545640474
 31
0.0
  0
LINE
  5
383
330
31F
100
AcDbEntity
  8
Fills_ Pattern_Pen_No__153
  6
Continuous
100
AcDbLine
 10
1514.620374221881
 20
-370.2567659559497
 30
0.0
 11
1514.620374221881
 21
-366.989545640474
 31
0.0
  0
LINE
  5
384
330
31F
100
AcDbEntity
  8
Fills_ Pattern_Pen_No__153
  6
Continuous
100
AcDbLine
 10
1564.620374221881
 20
-370.2567659559497
 30
0.0
 11
1564.620374221881
 21
-366.989545640474
 31
0.0
  0
LINE
  5
385
330
31F
100
AcDbEntity
  8
Fills_ Pattern_Pen_No__153
  6
Continuous
100
AcDbLine
 10
1564.620374221881
 20
-516.9895456404739
 30
0.0
 11
1563.313486095691
 21
-516.4994625931526
 31
0.0
  0
LINE
  5
386
330
31F
100
AcDbEntity
  8
Fills_ Pattern_Pen_No__153
  6
Continuous
100
AcDbLine
 10
1514.620374221881
 20
-466.989545640474
 30
0.0
 11
1513.313486095691
 21
-466.4994625931525
 31
0.0
  0
LINE
  5
387
330
31F
100
AcDbEntity
  8
Fills_ Pattern_Pen_No__153
  6
Continuous
100
AcDbLine
 10
1564.620374221881
 20
-466.989545640474
 30
0.0
 11
1563.313486095691
 21
-466.4994625931525
 31
0.0
  0
LINE
  5
388
330
31F
100
AcDbEntity
  8
Fills_ Pattern_Pen_No__153
  6
Continuous
100
AcDbLine
 10
1514.620374221881
 20
-416.989545640474
 30
0.0
 11
1513.313486095691
 21
-416.4994625931525
 31
0.0
  0
LINE
  5
389
330
31F
100
AcDbEntity
  8
Fills_ Pattern_Pen_No__153
  6
Continuous
100
AcDbLine
 10
1564.620374221881
 20
-416.989545640474
 30
0.0
 11
1563.313486095691
 21
-416.4994625931525
 31
0.0
  0
LINE
  5
38A
330
31F
100
AcDbEntity
  8
Fills_ Pattern_Pen_No__153
  6
Continuous
100
AcDbLine
 10
1464.620374221881
 20
-366.989545640474
 30
0.0
 11
1463.313486095691
 21
-366.4994625931526
 31
0.0
  0
LINE
  5
38B
330
31F
100
AcDbEntity
  8
Fills_ Pattern_Pen_No__153
  6
Continuous
100
AcDbLine
 10
1514.620374221881
 20
-366.989545640474
 30
0.0
 11
1513.313486095691
 21
-366.4994625931526
 31
0.0
  0
LINE
  5
38C
330
31F
100
AcDbEntity
  8
Fills_ Pattern_Pen_No__153
  6
Continuous
100
AcDbLine
 10
1564.620374221881
 20
-366.989545640474
 30
0.0
 11
1563.313486095691
 21
-366.4994625931526
 31
0.0
  0
LINE
  5
38D
330
31F
100
AcDbEntity
  8
Fills_ Pattern_Pen_No__153
  6
Continuous
100
AcDbLine
 10
1566.907428442714
 20
-499.9999999999999
 30
0.0
 11
1567.560872505809
 21
-498.8334145431419
 31
0.0
  0
LINE
  5
38E
330
31F
100
AcDbEntity
  8
Fills_ Pattern_Pen_No__153
  6
Continuous
100
AcDbLine
 10
1516.907428442714
 20
-449.9999999999999
 30
0.0
 11
1517.560872505809
 21
-448.8334145431419
 31
0.0
  0
LINE
  5
38F
330
31F
100
AcDbEntity
  8
Fills_ Pattern_Pen_No__153
  6
Continuous
100
AcDbLine
 10
1566.907428442714
 20
-449.9999999999999
 30
0.0
 11
1567.560872505809
 21
-448.8334145431419
 31
0.0
  0
LINE
  5
390
330
31F
100
AcDbEntity
  8
Fills_ Pattern_Pen_No__153
  6
Continuous
100
AcDbLine
 10
1466.907428442714
 20
-400.0
 30
0.0
 11
1467.560872505809
 21
-398.833414543142
 31
0.0
  0
LINE
  5
391
330
31F
100
AcDbEntity
  8
Fills_ Pattern_Pen_No__153
  6
Continuous
100
AcDbLine
 10
1516.907428442714
 20
-400.0
 30
0.0
 11
1517.560872505809
 21
-398.833414543142
 31
0.0
  0
LINE
  5
392
330
31F
100
AcDbEntity
  8
Fills_ Pattern_Pen_No__153
  6
Continuous
100
AcDbLine
 10
1566.907428442714
 20
-400.0
 30
0.0
 11
1567.560872505809
 21
-398.833414543142
 31
0.0
  0
LINE
  5
393
330
31F
100
AcDbEntity
  8
Fills_ Pattern_Pen_No__153
  6
Continuous
100
AcDbLine
 10
1567.560872505809
 20
-498.8334145431419
 30
0.0
 11
1568.867760631999
 21
-498.9967755589157
 31
0.0
  0
LINE
  5
394
330
31F
100
AcDbEntity
  8
Fills_ Pattern_Pen_No__153
  6
Continuous
100
AcDbLine
 10
1517.560872505809
 20
-448.8334145431419
 30
0.0
 11
1518.867760631999
 21
-448.9967755589157
 31
0.0
  0
LINE
  5
395
330
31F
100
AcDbEntity
  8
Fills_ Pattern_Pen_No__153
  6
Continuous
100
AcDbLine
 10
1567.560872505809
 20
-448.8334145431419
 30
0.0
 11
1568.867760631999
 21
-448.9967755589157
 31
0.0
  0
LINE
  5
396
330
31F
100
AcDbEntity
  8
Fills_ Pattern_Pen_No__153
  6
Continuous
100
AcDbLine
 10
1467.560872505809
 20
-398.833414543142
 30
0.0
 11
1468.867760631999
 21
-398.9967755589157
 31
0.0
  0
LINE
  5
397
330
31F
100
AcDbEntity
  8
Fills_ Pattern_Pen_No__153
  6
Continuous
100
AcDbLine
 10
1517.560872505809
 20
-398.833414543142
 30
0.0
 11
1518.867760631999
 21
-398.9967755589157
 31
0.0
  0
LINE
  5
398
330
31F
100
AcDbEntity
  8
Fills_ Pattern_Pen_No__153
  6
Continuous
100
AcDbLine
 10
1567.560872505809
 20
-398.833414543142
 30
0.0
 11
1568.867760631999
 21
-398.9967755589157
 31
0.0
  0
LINE
  5
399
330
31F
100
AcDbEntity
  8
Fills_ Pattern_Pen_No__153
  6
Continuous
100
AcDbLine
 10
1568.867760631999
 20
-498.9967755589157
 30
0.0
 11
1569.521204695095
 21
-499.9999999999999
 31
0.0
  0
LINE
  5
39A
330
31F
100
AcDbEntity
  8
Fills_ Pattern_Pen_No__153
  6
Continuous
100
AcDbLine
 10
1518.867760631999
 20
-448.9967755589157
 30
0.0
 11
1519.521204695095
 21
-449.9999999999999
 31
0.0
  0
LINE
  5
39B
330
31F
100
AcDbEntity
  8
Fills_ Pattern_Pen_No__153
  6
Continuous
100
AcDbLine
 10
1568.867760631999
 20
-448.9967755589157
 30
0.0
 11
1569.521204695095
 21
-449.9999999999999
 31
0.0
  0
LINE
  5
39C
330
31F
100
AcDbEntity
  8
Fills_ Pattern_Pen_No__153
  6
Continuous
100
AcDbLine
 10
1468.867760631999
 20
-398.9967755589157
 30
0.0
 11
1469.521204695094
 21
-400.0
 31
0.0
  0
LINE
  5
39D
330
31F
100
AcDbEntity
  8
Fills_ Pattern_Pen_No__153
  6
Continuous
100
AcDbLine
 10
1518.867760631999
 20
-398.9967755589157
 30
0.0
 11
1519.521204695095
 21
-400.0
 31
0.0
  0
LINE
  5
39E
330
31F
100
AcDbEntity
  8
Fills_ Pattern_Pen_No__153
  6
Continuous
100
AcDbLine
 10
1568.867760631999
 20
-398.9967755589157
 30
0.0
 11
1569.521204695095
 21
-400.0
 31
0.0
  0
LINE
  5
39F
330
31F
100
AcDbEntity
  8
Fills_ Pattern_Pen_No__153
  6
Continuous
100
AcDbLine
 10
1541.236690619788
 20
-500.805275905648
 30
0.0
 11
1539.766441477824
 21
-502.4388860633861
 31
0.0
  0
LINE
  5
3A0
330
31F
100
AcDbEntity
  8
Fills_ Pattern_Pen_No__153
  6
Continuous
100
AcDbLine
 10
1491.236690619787
 20
-450.805275905648
 30
0.0
 11
1489.766441477823
 21
-452.4388860633861
 31
0.0
  0
LINE
  5
3A1
330
31F
100
AcDbEntity
  8
Fills_ Pattern_Pen_No__153
  6
Continuous
100
AcDbLine
 10
1541.236690619788
 20
-450.805275905648
 30
0.0
 11
1539.766441477824
 21
-452.4388860633861
 31
0.0
  0
LINE
  5
3A2
330
31F
100
AcDbEntity
  8
Fills_ Pattern_Pen_No__153
  6
Continuous
100
AcDbLine
 10
1491.236690619787
 20
-400.805275905648
 30
0.0
 11
1489.766441477823
 21
-402.4388860633861
 31
0.0
  0
LINE
  5
3A3
330
31F
100
AcDbEntity
  8
Fills_ Pattern_Pen_No__153
  6
Continuous
100
AcDbLine
 10
1541.236690619788
 20
-400.805275905648
 30
0.0
 11
1539.766441477824
 21
-402.4388860633861
 31
0.0
  0
LINE
  5
3A4
330
31F
100
AcDbEntity
  8
Fills_ Pattern_Pen_No__153
  6
Continuous
100
AcDbLine
 10
1539.766441477824
 20
-502.4388860633861
 30
0.0
 11
1541.236690619788
 21
-501.7854420002908
 31
0.0
  0
LINE
  5
3A5
330
31F
100
AcDbEntity
  8
Fills_ Pattern_Pen_No__153
  6
Continuous
100
AcDbLine
 10
1489.766441477823
 20
-452.4388860633861
 30
0.0
 11
1491.236690619787
 21
-451.7854420002909
 31
0.0
  0
LINE
  5
3A6
330
31F
100
AcDbEntity
  8
Fills_ Pattern_Pen_No__153
  6
Continuous
100
AcDbLine
 10
1539.766441477824
 20
-452.4388860633861
 30
0.0
 11
1541.236690619788
 21
-451.7854420002909
 31
0.0
  0
LINE
  5
3A7
330
31F
100
AcDbEntity
  8
Fills_ Pattern_Pen_No__153
  6
Continuous
100
AcDbLine
 10
1489.766441477823
 20
-402.4388860633861
 30
0.0
 11
1491.236690619787
 21
-401.7854420002909
 31
0.0
  0
LINE
  5
3A8
330
31F
100
AcDbEntity
  8
Fills_ Pattern_Pen_No__153
  6
Continuous
100
AcDbLine
 10
1539.766441477824
 20
-402.4388860633861
 30
0.0
 11
1541.236690619788
 21
-401.7854420002909
 31
0.0
  0
LINE
  5
3A9
330
31F
100
AcDbEntity
  8
Fills_ Pattern_Pen_No__153
  6
Continuous
100
AcDbLine
 10
1541.236690619788
 20
-501.7854420002908
 30
0.0
 11
1541.236690619788
 21
-500.805275905648
 31
0.0
  0
LINE
  5
3AA
330
31F
100
AcDbEntity
  8
Fills_ Pattern_Pen_No__153
  6
Continuous
100
AcDbLine
 10
1491.236690619787
 20
-451.7854420002909
 30
0.0
 11
1491.236690619787
 21
-450.805275905648
 31
0.0
  0
LINE
  5
3AB
330
31F
100
AcDbEntity
  8
Fills_ Pattern_Pen_No__153
  6
Continuous
100
AcDbLine
 10
1541.236690619788
 20
-451.7854420002909
 30
0.0
 11
1541.236690619788
 21
-450.805275905648
 31
0.0
  0
LINE
  5
3AC
330
31F
100
AcDbEntity
  8
Fills_ Pattern_Pen_No__153
  6
Continuous
100
AcDbLine
 10
1491.236690619787
 20
-401.7854420002909
 30
0.0
 11
1491.236690619787
 21
-400.805275905648
 31
0.0
  0
LINE
  5
3AD
330
31F
100
AcDbEntity
  8
Fills_ Pattern_Pen_No__153
  6
Continuous
100
AcDbLine
 10
1541.236690619788
 20
-401.7854420002909
 30
0.0
 11
1541.236690619788
 21
-400.805275905648
 31
0.0
  0
LINE
  5
3AE
330
31F
100
AcDbEntity
  8
Fills_ Pattern_Pen_No__153
  6
Continuous
100
AcDbLine
 10
1557.30567138843
 20
-494.8996932317388
 30
0.0
 11
1557.596333797767
 21
-496.1350084714196
 31
0.0
  0
LINE
  5
3AF
330
31F
100
AcDbEntity
  8
Fills_ Pattern_Pen_No__153
  6
Continuous
100
AcDbLine
 10
1507.30567138843
 20
-444.8996932317388
 30
0.0
 11
1507.596333797767
 21
-446.1350084714196
 31
0.0
  0
LINE
  5
3B0
330
31F
100
AcDbEntity
  8
Fills_ Pattern_Pen_No__153
  6
Continuous
100
AcDbLine
 10
1557.30567138843
 20
-444.8996932317388
 30
0.0
 11
1557.596333797767
 21
-446.1350084714196
 31
0.0
  0
LINE
  5
3B1
330
31F
100
AcDbEntity
  8
Fills_ Pattern_Pen_No__153
  6
Continuous
100
AcDbLine
 10
1507.30567138843
 20
-394.8996932317389
 30
0.0
 11
1507.596333797767
 21
-396.1350084714196
 31
0.0
  0
LINE
  5
3B2
330
31F
100
AcDbEntity
  8
Fills_ Pattern_Pen_No__153
  6
Continuous
100
AcDbLine
 10
1557.30567138843
 20
-394.8996932317389
 30
0.0
 11
1557.596333797767
 21
-396.1350084714196
 31
0.0
  0
LINE
  5
3B3
330
31F
100
AcDbEntity
  8
Fills_ Pattern_Pen_No__153
  6
Continuous
100
AcDbLine
 10
1557.596333797767
 20
-496.1350084714196
 30
0.0
 11
1558.104993014106
 21
-495.4083524480779
 31
0.0
  0
LINE
  5
3B4
330
31F
100
AcDbEntity
  8
Fills_ Pattern_Pen_No__153
  6
Continuous
100
AcDbLine
 10
1507.596333797767
 20
-446.1350084714196
 30
0.0
 11
1508.104993014106
 21
-445.4083524480779
 31
0.0
  0
LINE
  5
3B5
330
31F
100
AcDbEntity
  8
Fills_ Pattern_Pen_No__153
  6
Continuous
100
AcDbLine
 10
1557.596333797767
 20
-446.1350084714196
 30
0.0
 11
1558.104993014106
 21
-445.4083524480779
 31
0.0
  0
LINE
  5
3B6
330
31F
100
AcDbEntity
  8
Fills_ Pattern_Pen_No__153
  6
Continuous
100
AcDbLine
 10
1507.596333797767
 20
-396.1350084714196
 30
0.0
 11
1508.104993014106
 21
-395.408352448078
 31
0.0
  0
LINE
  5
3B7
330
31F
100
AcDbEntity
  8
Fills_ Pattern_Pen_No__153
  6
Continuous
100
AcDbLine
 10
1557.596333797767
 20
-396.1350084714196
 30
0.0
 11
1558.104993014106
 21
-395.408352448078
 31
0.0
  0
LINE
  5
3B8
330
31F
100
AcDbEntity
  8
Fills_ Pattern_Pen_No__153
  6
Continuous
100
AcDbLine
 10
1558.104993014106
 20
-495.4083524480779
 30
0.0
 11
1557.814330604769
 21
-495.1903556410754
 31
0.0
  0
LINE
  5
3B9
330
31F
100
AcDbEntity
  8
Fills_ Pattern_Pen_No__153
  6
Continuous
100
AcDbLine
 10
1508.104993014106
 20
-445.4083524480779
 30
0.0
 11
1507.814330604769
 21
-445.1903556410754
 31
0.0
  0
LINE
  5
3BA
330
31F
100
AcDbEntity
  8
Fills_ Pattern_Pen_No__153
  6
Continuous
100
AcDbLine
 10
1558.104993014106
 20
-445.4083524480779
 30
0.0
 11
1557.814330604769
 21
-445.1903556410754
 31
0.0
  0
LINE
  5
3BB
330
31F
100
AcDbEntity
  8
Fills_ Pattern_Pen_No__153
  6
Continuous
100
AcDbLine
 10
1508.104993014106
 20
-395.408352448078
 30
0.0
 11
1507.814330604769
 21
-395.1903556410755
 31
0.0
  0
LINE
  5
3BC
330
31F
100
AcDbEntity
  8
Fills_ Pattern_Pen_No__153
  6
Continuous
100
AcDbLine
 10
1558.104993014106
 20
-395.408352448078
 30
0.0
 11
1557.814330604769
 21
-395.1903556410755
 31
0.0
  0
LINE
  5
3BD
330
31F
100
AcDbEntity
  8
Fills_ Pattern_Pen_No__153
  6
Continuous
100
AcDbLine
 10
1557.814330604769
 20
-495.1903556410754
 30
0.0
 11
1557.30567138843
 21
-494.8996932317388
 31
0.0
  0
LINE
  5
3BE
330
31F
100
AcDbEntity
  8
Fills_ Pattern_Pen_No__153
  6
Continuous
100
AcDbLine
 10
1507.814330604769
 20
-445.1903556410754
 30
0.0
 11
1507.30567138843
 21
-444.8996932317388
 31
0.0
  0
LINE
  5
3BF
330
31F
100
AcDbEntity
  8
Fills_ Pattern_Pen_No__153
  6
Continuous
100
AcDbLine
 10
1557.814330604769
 20
-445.1903556410754
 30
0.0
 11
1557.30567138843
 21
-444.8996932317388
 31
0.0
  0
LINE
  5
3C0
330
31F
100
AcDbEntity
  8
Fills_ Pattern_Pen_No__153
  6
Continuous
100
AcDbLine
 10
1507.814330604769
 20
-395.1903556410755
 30
0.0
 11
1507.30567138843
 21
-394.8996932317389
 31
0.0
  0
LINE
  5
3C1
330
31F
100
AcDbEntity
  8
Fills_ Pattern_Pen_No__153
  6
Continuous
100
AcDbLine
 10
1557.814330604769
 20
-395.1903556410755
 30
0.0
 11
1557.30567138843
 21
-394.8996932317389
 31
0.0
  0
LINE
  5
3C2
330
31F
100
AcDbEntity
  8
Fills_ Pattern_Pen_No__153
  6
Continuous
100
AcDbLine
 10
1535.717921901087
 20
-508.4215608599904
 30
0.0
 11
1536.081249912758
 21
-509.4388792926687
 31
0.0
  0
LINE
  5
3C3
330
31F
100
AcDbEntity
  8
Fills_ Pattern_Pen_No__153
  6
Continuous
100
AcDbLine
 10
1535.717921901087
 20
-458.4215608599904
 30
0.0
 11
1536.081249912758
 21
-459.4388792926687
 31
0.0
  0
LINE
  5
3C4
330
31F
100
AcDbEntity
  8
Fills_ Pattern_Pen_No__153
  6
Continuous
100
AcDbLine
 10
1485.717921901087
 20
-408.4215608599904
 30
0.0
 11
1486.081249912758
 21
-409.4388792926687
 31
0.0
  0
LINE
  5
3C5
330
31F
100
AcDbEntity
  8
Fills_ Pattern_Pen_No__153
  6
Continuous
100
AcDbLine
 10
1535.717921901087
 20
-408.4215608599904
 30
0.0
 11
1536.081249912758
 21
-409.4388792926687
 31
0.0
  0
LINE
  5
3C6
330
31F
100
AcDbEntity
  8
Fills_ Pattern_Pen_No__153
  6
Continuous
100
AcDbLine
 10
1485.717921901087
 20
-358.4215608599905
 30
0.0
 11
1486.081249912758
 21
-359.4388792926688
 31
0.0
  0
LINE
  5
3C7
330
31F
100
AcDbEntity
  8
Fills_ Pattern_Pen_No__153
  6
Continuous
100
AcDbLine
 10
1535.717921901087
 20
-358.4215608599905
 30
0.0
 11
1536.081249912758
 21
-359.4388792926688
 31
0.0
  0
LINE
  5
3C8
330
31F
100
AcDbEntity
  8
Fills_ Pattern_Pen_No__153
  6
Continuous
100
AcDbLine
 10
1536.081249912758
 20
-509.4388792926687
 30
0.0
 11
1536.371912322094
 21
-508.7848888716613
 31
0.0
  0
LINE
  5
3C9
330
31F
100
AcDbEntity
  8
Fills_ Pattern_Pen_No__153
  6
Continuous
100
AcDbLine
 10
1536.081249912758
 20
-459.4388792926687
 30
0.0
 11
1536.371912322094
 21
-458.7848888716612
 31
0.0
  0
LINE
  5
3CA
330
31F
100
AcDbEntity
  8
Fills_ Pattern_Pen_No__153
  6
Continuous
100
AcDbLine
 10
1486.081249912758
 20
-409.4388792926687
 30
0.0
 11
1486.371912322094
 21
-408.7848888716612
 31
0.0
  0
LINE
  5
3CB
330
31F
100
AcDbEntity
  8
Fills_ Pattern_Pen_No__153
  6
Continuous
100
AcDbLine
 10
1536.081249912758
 20
-409.4388792926687
 30
0.0
 11
1536.371912322094
 21
-408.7848888716612
 31
0.0
  0
LINE
  5
3CC
330
31F
100
AcDbEntity
  8
Fills_ Pattern_Pen_No__153
  6
Continuous
100
AcDbLine
 10
1486.081249912758
 20
-359.4388792926688
 30
0.0
 11
1486.371912322094
 21
-358.7848888716613
 31
0.0
  0
LINE
  5
3CD
330
31F
100
AcDbEntity
  8
Fills_ Pattern_Pen_No__153
  6
Continuous
100
AcDbLine
 10
1536.081249912758
 20
-359.4388792926688
 30
0.0
 11
1536.371912322094
 21
-358.7848888716613
 31
0.0
  0
LINE
  5
3CE
330
31F
100
AcDbEntity
  8
Fills_ Pattern_Pen_No__153
  6
Continuous
100
AcDbLine
 10
1536.371912322094
 20
-508.7848888716613
 30
0.0
 11
1535.717921901087
 21
-508.4215608599904
 31
0.0
  0
LINE
  5
3CF
330
31F
100
AcDbEntity
  8
Fills_ Pattern_Pen_No__153
  6
Continuous
100
AcDbLine
 10
1536.371912322094
 20
-458.7848888716612
 30
0.0
 11
1535.717921901087
 21
-458.4215608599904
 31
0.0
  0
LINE
  5
3D0
330
31F
100
AcDbEntity
  8
Fills_ Pattern_Pen_No__153
  6
Continuous
100
AcDbLine
 10
1486.371912322094
 20
-408.7848888716612
 30
0.0
 11
1485.717921901087
 21
-408.4215608599904
 31
0.0
  0
LINE
  5
3D1
330
31F
100
AcDbEntity
  8
Fills_ Pattern_Pen_No__153
  6
Continuous
100
AcDbLine
 10
1536.371912322094
 20
-408.7848888716612
 30
0.0
 11
1535.717921901087
 21
-408.4215608599904
 31
0.0
  0
LINE
  5
3D2
330
31F
100
AcDbEntity
  8
Fills_ Pattern_Pen_No__153
  6
Continuous
100
AcDbLine
 10
1486.371912322094
 20
-358.7848888716613
 30
0.0
 11
1485.717921901087
 21
-358.4215608599905
 31
0.0
  0
LINE
  5
3D3
330
31F
100
AcDbEntity
  8
Fills_ Pattern_Pen_No__153
  6
Continuous
100
AcDbLine
 10
1536.371912322094
 20
-358.7848888716613
 30
0.0
 11
1535.717921901087
 21
-358.4215608599905
 31
0.0
  0
LINE
  5
3D4
330
31F
100
AcDbEntity
  8
Fills_ Pattern_Pen_No__153
  6
Continuous
100
AcDbLine
 10
1566.907428442714
 20
-500.0
 30
0.0
 11
1567.560872505809
 21
-501.166585456858
 31
0.0
  0
LINE
  5
3D5
330
31F
100
AcDbEntity
  8
Fills_ Pattern_Pen_No__153
  6
Continuous
100
AcDbLine
 10
1516.907428442714
 20
-449.9999999999999
 30
0.0
 11
1517.560872505809
 21
-451.1665854568579
 31
0.0
  0
LINE
  5
3D6
330
31F
100
AcDbEntity
  8
Fills_ Pattern_Pen_No__153
  6
Continuous
100
AcDbLine
 10
1566.907428442714
 20
-449.9999999999999
 30
0.0
 11
1567.560872505809
 21
-451.1665854568579
 31
0.0
  0
LINE
  5
3D7
330
31F
100
AcDbEntity
  8
Fills_ Pattern_Pen_No__153
  6
Continuous
100
AcDbLine
 10
1466.907428442714
 20
-399.9999999999999
 30
0.0
 11
1467.560872505809
 21
-401.1665854568579
 31
0.0
  0
LINE
  5
3D8
330
31F
100
AcDbEntity
  8
Fills_ Pattern_Pen_No__153
  6
Continuous
100
AcDbLine
 10
1516.907428442714
 20
-399.9999999999999
 30
0.0
 11
1517.560872505809
 21
-401.1665854568579
 31
0.0
  0
LINE
  5
3D9
330
31F
100
AcDbEntity
  8
Fills_ Pattern_Pen_No__153
  6
Continuous
100
AcDbLine
 10
1566.907428442714
 20
-399.9999999999999
 30
0.0
 11
1567.560872505809
 21
-401.1665854568579
 31
0.0
  0
LINE
  5
3DA
330
31F
100
AcDbEntity
  8
Fills_ Pattern_Pen_No__153
  6
Continuous
100
AcDbLine
 10
1567.560872505809
 20
-501.166585456858
 30
0.0
 11
1568.867760631999
 21
-501.0032244410842
 31
0.0
  0
LINE
  5
3DB
330
31F
100
AcDbEntity
  8
Fills_ Pattern_Pen_No__153
  6
Continuous
100
AcDbLine
 10
1517.560872505809
 20
-451.1665854568579
 30
0.0
 11
1518.867760631999
 21
-451.0032244410842
 31
0.0
  0
LINE
  5
3DC
330
31F
100
AcDbEntity
  8
Fills_ Pattern_Pen_No__153
  6
Continuous
100
AcDbLine
 10
1567.560872505809
 20
-451.1665854568579
 30
0.0
 11
1568.867760631999
 21
-451.0032244410842
 31
0.0
  0
LINE
  5
3DD
330
31F
100
AcDbEntity
  8
Fills_ Pattern_Pen_No__153
  6
Continuous
100
AcDbLine
 10
1467.560872505809
 20
-401.1665854568579
 30
0.0
 11
1468.867760631999
 21
-401.0032244410841
 31
0.0
  0
LINE
  5
3DE
330
31F
100
AcDbEntity
  8
Fills_ Pattern_Pen_No__153
  6
Continuous
100
AcDbLine
 10
1517.560872505809
 20
-401.1665854568579
 30
0.0
 11
1518.867760631999
 21
-401.0032244410841
 31
0.0
  0
LINE
  5
3DF
330
31F
100
AcDbEntity
  8
Fills_ Pattern_Pen_No__153
  6
Continuous
100
AcDbLine
 10
1567.560872505809
 20
-401.1665854568579
 30
0.0
 11
1568.867760631999
 21
-401.0032244410841
 31
0.0
  0
LINE
  5
3E0
330
31F
100
AcDbEntity
  8
Fills_ Pattern_Pen_No__153
  6
Continuous
100
AcDbLine
 10
1568.867760631999
 20
-501.0032244410842
 30
0.0
 11
1569.521204695095
 21
-500.0
 31
0.0
  0
LINE
  5
3E1
330
31F
100
AcDbEntity
  8
Fills_ Pattern_Pen_No__153
  6
Continuous
100
AcDbLine
 10
1518.867760631999
 20
-451.0032244410842
 30
0.0
 11
1519.521204695095
 21
-449.9999999999999
 31
0.0
  0
LINE
  5
3E2
330
31F
100
AcDbEntity
  8
Fills_ Pattern_Pen_No__153
  6
Continuous
100
AcDbLine
 10
1568.867760631999
 20
-451.0032244410842
 30
0.0
 11
1569.521204695095
 21
-449.9999999999999
 31
0.0
  0
LINE
  5
3E3
330
31F
100
AcDbEntity
  8
Fills_ Pattern_Pen_No__153
  6
Continuous
100
AcDbLine
 10
1468.867760631999
 20
-401.0032244410841
 30
0.0
 11
1469.521204695094
 21
-399.9999999999999
 31
0.0
  0
LINE
  5
3E4
330
31F
100
AcDbEntity
  8
Fills_ Pattern_Pen_No__153
  6
Continuous
100
AcDbLine
 10
1518.867760631999
 20
-401.0032244410841
 30
0.0
 11
1519.521204695095
 21
-399.9999999999999
 31
0.0
  0
LINE
  5
3E5
330
31F
100
AcDbEntity
  8
Fills_ Pattern_Pen_No__153
  6
Continuous
100
AcDbLine
 10
1568.867760631999
 20
-401.0032244410841
 30
0.0
 11
1569.521204695095
 21
-399.9999999999999
 31
0.0
  0
LINE
  5
3E6
330
31F
100
AcDbEntity
  8
Fills_ Pattern_Pen_No__153
  6
Continuous
100
AcDbLine
 10
1545.108710484281
 20
-478.7404485888904
 30
0.0
 11
1544.743224223259
 21
-482.0298249380857
 31
0.0
  0
LINE
  5
3E7
330
31F
100
AcDbEntity
  8
Fills_ Pattern_Pen_No__153
  6
Continuous
100
AcDbLine
 10
1495.108710484281
 20
-428.7404485888903
 30
0.0
 11
1494.743224223259
 21
-432.0298249380857
 31
0.0
  0
LINE
  5
3E8
330
31F
100
AcDbEntity
  8
Fills_ Pattern_Pen_No__153
  6
Continuous
100
AcDbLine
 10
1545.108710484281
 20
-428.7404485888903
 30
0.0
 11
1544.743224223259
 21
-432.0298249380857
 31
0.0
  0
LINE
  5
3E9
330
31F
100
AcDbEntity
  8
Fills_ Pattern_Pen_No__153
  6
Continuous
100
AcDbLine
 10
1495.108710484281
 20
-378.7404485888905
 30
0.0
 11
1494.743224223259
 21
-382.0298249380858
 31
0.0
  0
LINE
  5
3EA
330
31F
100
AcDbEntity
  8
Fills_ Pattern_Pen_No__153
  6
Continuous
100
AcDbLine
 10
1545.108710484281
 20
-378.7404485888905
 30
0.0
 11
1544.743224223259
 21
-382.0298249380858
 31
0.0
  0
LINE
  5
3EB
330
31F
100
AcDbEntity
  8
Fills_ Pattern_Pen_No__153
  6
Continuous
100
AcDbLine
 10
1544.743224223259
 20
-482.0298249380857
 30
0.0
 11
1546.022426136835
 21
-479.8369073719555
 31
0.0
  0
LINE
  5
3EC
330
31F
100
AcDbEntity
  8
Fills_ Pattern_Pen_No__153
  6
Continuous
100
AcDbLine
 10
1494.743224223259
 20
-432.0298249380857
 30
0.0
 11
1496.022426136835
 21
-429.8369073719555
 31
0.0
  0
LINE
  5
3ED
330
31F
100
AcDbEntity
  8
Fills_ Pattern_Pen_No__153
  6
Continuous
100
AcDbLine
 10
1544.743224223259
 20
-432.0298249380857
 30
0.0
 11
1546.022426136835
 21
-429.8369073719555
 31
0.0
  0
LINE
  5
3EE
330
31F
100
AcDbEntity
  8
Fills_ Pattern_Pen_No__153
  6
Continuous
100
AcDbLine
 10
1494.743224223259
 20
-382.0298249380858
 30
0.0
 11
1496.022426136835
 21
-379.8369073719555
 31
0.0
  0
LINE
  5
3EF
330
31F
100
AcDbEntity
  8
Fills_ Pattern_Pen_No__153
  6
Continuous
100
AcDbLine
 10
1544.743224223259
 20
-382.0298249380858
 30
0.0
 11
1546.022426136835
 21
-379.8369073719555
 31
0.0
  0
LINE
  5
3F0
330
31F
100
AcDbEntity
  8
Fills_ Pattern_Pen_No__153
  6
Continuous
100
AcDbLine
 10
1546.022426136835
 20
-479.8369073719555
 30
0.0
 11
1545.108710484281
 21
-478.7404485888904
 31
0.0
  0
LINE
  5
3F1
330
31F
100
AcDbEntity
  8
Fills_ Pattern_Pen_No__153
  6
Continuous
100
AcDbLine
 10
1496.022426136835
 20
-429.8369073719555
 30
0.0
 11
1495.108710484281
 21
-428.7404485888903
 31
0.0
  0
LINE
  5
3F2
330
31F
100
AcDbEntity
  8
Fills_ Pattern_Pen_No__153
  6
Continuous
100
AcDbLine
 10
1546.022426136835
 20
-429.8369073719555
 30
0.0
 11
1545.108710484281
 21
-428.7404485888903
 31
0.0
  0
LINE
  5
3F3
330
31F
100
AcDbEntity
  8
Fills_ Pattern_Pen_No__153
  6
Continuous
100
AcDbLine
 10
1496.022426136835
 20
-379.8369073719555
 30
0.0
 11
1495.108710484281
 21
-378.7404485888905
 31
0.0
  0
LINE
  5
3F4
330
31F
100
AcDbEntity
  8
Fills_ Pattern_Pen_No__153
  6
Continuous
100
AcDbLine
 10
1546.022426136835
 20
-379.8369073719555
 30
0.0
 11
1545.108710484281
 21
-378.7404485888905
 31
0.0
  0
LINE
  5
3F5
330
31F
100
AcDbEntity
  8
Fills_ Pattern_Pen_No__153
  6
Continuous
100
AcDbLine
 10
1547.96098281248
 20
-490.8731129625812
 30
0.0
 11
1548.509212204013
 21
-492.335058006668
 31
0.0
  0
LINE
  5
3F6
330
31F
100
AcDbEntity
  8
Fills_ Pattern_Pen_No__153
  6
Continuous
100
AcDbLine
 10
1497.96098281248
 20
-440.8731129625812
 30
0.0
 11
1498.509212204013
 21
-442.3350580066681
 31
0.0
  0
LINE
  5
3F7
330
31F
100
AcDbEntity
  8
Fills_ Pattern_Pen_No__153
  6
Continuous
100
AcDbLine
 10
1547.96098281248
 20
-440.8731129625812
 30
0.0
 11
1548.509212204013
 21
-442.3350580066681
 31
0.0
  0
LINE
  5
3F8
330
31F
100
AcDbEntity
  8
Fills_ Pattern_Pen_No__153
  6
Continuous
100
AcDbLine
 10
1497.96098281248
 20
-390.8731129625813
 30
0.0
 11
1498.509212204013
 21
-392.3350580066681
 31
0.0
  0
LINE
  5
3F9
330
31F
100
AcDbEntity
  8
Fills_ Pattern_Pen_No__153
  6
Continuous
100
AcDbLine
 10
1547.96098281248
 20
-390.8731129625813
 30
0.0
 11
1548.509212204013
 21
-392.3350580066681
 31
0.0
  0
LINE
  5
3FA
330
31F
100
AcDbEntity
  8
Fills_ Pattern_Pen_No__153
  6
Continuous
100
AcDbLine
 10
1548.509212204013
 20
-492.335058006668
 30
0.0
 11
1549.788414117589
 21
-490.8731129625812
 31
0.0
  0
LINE
  5
3FB
330
31F
100
AcDbEntity
  8
Fills_ Pattern_Pen_No__153
  6
Continuous
100
AcDbLine
 10
1498.509212204013
 20
-442.3350580066681
 30
0.0
 11
1499.788414117588
 21
-440.8731129625812
 31
0.0
  0
LINE
  5
3FC
330
31F
100
AcDbEntity
  8
Fills_ Pattern_Pen_No__153
  6
Continuous
100
AcDbLine
 10
1548.509212204013
 20
-442.3350580066681
 30
0.0
 11
1549.788414117589
 21
-440.8731129625812
 31
0.0
  0
LINE
  5
3FD
330
31F
100
AcDbEntity
  8
Fills_ Pattern_Pen_No__153
  6
Continuous
100
AcDbLine
 10
1498.509212204013
 20
-392.3350580066681
 30
0.0
 11
1499.788414117588
 21
-390.8731129625813
 31
0.0
  0
LINE
  5
3FE
330
31F
100
AcDbEntity
  8
Fills_ Pattern_Pen_No__153
  6
Continuous
100
AcDbLine
 10
1548.509212204013
 20
-392.3350580066681
 30
0.0
 11
1549.788414117589
 21
-390.8731129625813
 31
0.0
  0
LINE
  5
3FF
330
31F
100
AcDbEntity
  8
Fills_ Pattern_Pen_No__153
  6
Continuous
100
AcDbLine
 10
1549.788414117589
 20
-490.8731129625812
 30
0.0
 11
1547.96098281248
 21
-490.8731129625812
 31
0.0
  0
LINE
  5
400
330
31F
100
AcDbEntity
  8
Fills_ Pattern_Pen_No__153
  6
Continuous
100
AcDbLine
 10
1499.788414117588
 20
-440.8731129625812
 30
0.0
 11
1497.96098281248
 21
-440.8731129625812
 31
0.0
  0
LINE
  5
401
330
31F
100
AcDbEntity
  8
Fills_ Pattern_Pen_No__153
  6
Continuous
100
AcDbLine
 10
1549.788414117589
 20
-440.8731129625812
 30
0.0
 11
1547.96098281248
 21
-440.8731129625812
 31
0.0
  0
LINE
  5
402
330
31F
100
AcDbEntity
  8
Fills_ Pattern_Pen_No__153
  6
Continuous
100
AcDbLine
 10
1499.788414117588
 20
-390.8731129625813
 30
0.0
 11
1497.96098281248
 21
-390.8731129625813
 31
0.0
  0
LINE
  5
403
330
31F
100
AcDbEntity
  8
Fills_ Pattern_Pen_No__153
  6
Continuous
100
AcDbLine
 10
1549.788414117589
 20
-390.8731129625813
 30
0.0
 11
1547.96098281248
 21
-390.8731129625813
 31
0.0
  0
LINE
  5
404
330
31F
100
AcDbEntity
  8
Fills_ Pattern_Pen_No__153
  6
Continuous
100
AcDbLine
 10
1529.138440369862
 20
-484.0399993737052
 30
0.0
 11
1528.407467847818
 21
-485.5019444177919
 31
0.0
  0
LINE
  5
405
330
31F
100
AcDbEntity
  8
Fills_ Pattern_Pen_No__153
  6
Continuous
100
AcDbLine
 10
1579.138440369862
 20
-484.0399993737052
 30
0.0
 11
1578.407467847819
 21
-485.5019444177919
 31
0.0
  0
LINE
  5
406
330
31F
100
AcDbEntity
  8
Fills_ Pattern_Pen_No__153
  6
Continuous
100
AcDbLine
 10
1529.138440369862
 20
-434.0399993737052
 30
0.0
 11
1528.407467847818
 21
-435.5019444177919
 31
0.0
  0
LINE
  5
407
330
31F
100
AcDbEntity
  8
Fills_ Pattern_Pen_No__153
  6
Continuous
100
AcDbLine
 10
1579.138440369862
 20
-434.0399993737052
 30
0.0
 11
1578.407467847819
 21
-435.5019444177919
 31
0.0
  0
LINE
  5
408
330
31F
100
AcDbEntity
  8
Fills_ Pattern_Pen_No__153
  6
Continuous
100
AcDbLine
 10
1479.138440369862
 20
-384.0399993737052
 30
0.0
 11
1478.407467847819
 21
-385.501944417792
 31
0.0
  0
LINE
  5
409
330
31F
100
AcDbEntity
  8
Fills_ Pattern_Pen_No__153
  6
Continuous
100
AcDbLine
 10
1529.138440369862
 20
-384.0399993737052
 30
0.0
 11
1528.407467847818
 21
-385.501944417792
 31
0.0
  0
LINE
  5
40A
330
31F
100
AcDbEntity
  8
Fills_ Pattern_Pen_No__153
  6
Continuous
100
AcDbLine
 10
1579.138440369862
 20
-384.0399993737052
 30
0.0
 11
1578.407467847819
 21
-385.501944417792
 31
0.0
  0
LINE
  5
40B
330
31F
100
AcDbEntity
  8
Fills_ Pattern_Pen_No__153
  6
Continuous
100
AcDbLine
 10
1528.407467847818
 20
-485.5019444177919
 30
0.0
 11
1530.052156022416
 21
-485.1364581567702
 31
0.0
  0
LINE
  5
40C
330
31F
100
AcDbEntity
  8
Fills_ Pattern_Pen_No__153
  6
Continuous
100
AcDbLine
 10
1578.407467847819
 20
-485.5019444177919
 30
0.0
 11
1580.052156022416
 21
-485.1364581567702
 31
0.0
  0
LINE
  5
40D
330
31F
100
AcDbEntity
  8
Fills_ Pattern_Pen_No__153
  6
Continuous
100
AcDbLine
 10
1528.407467847818
 20
-435.5019444177919
 30
0.0
 11
1530.052156022416
 21
-435.1364581567702
 31
0.0
  0
LINE
  5
40E
330
31F
100
AcDbEntity
  8
Fills_ Pattern_Pen_No__153
  6
Continuous
100
AcDbLine
 10
1578.407467847819
 20
-435.5019444177919
 30
0.0
 11
1580.052156022416
 21
-435.1364581567702
 31
0.0
  0
LINE
  5
40F
330
31F
100
AcDbEntity
  8
Fills_ Pattern_Pen_No__153
  6
Continuous
100
AcDbLine
 10
1478.407467847819
 20
-385.501944417792
 30
0.0
 11
1480.052156022416
 21
-385.1364581567704
 31
0.0
  0
LINE
  5
410
330
31F
100
AcDbEntity
  8
Fills_ Pattern_Pen_No__153
  6
Continuous
100
AcDbLine
 10
1528.407467847818
 20
-385.501944417792
 30
0.0
 11
1530.052156022416
 21
-385.1364581567704
 31
0.0
  0
LINE
  5
411
330
31F
100
AcDbEntity
  8
Fills_ Pattern_Pen_No__153
  6
Continuous
100
AcDbLine
 10
1578.407467847819
 20
-385.501944417792
 30
0.0
 11
1580.052156022416
 21
-385.1364581567704
 31
0.0
  0
LINE
  5
412
330
31F
100
AcDbEntity
  8
Fills_ Pattern_Pen_No__153
  6
Continuous
100
AcDbLine
 10
1530.052156022416
 20
-485.1364581567702
 30
0.0
 11
1529.138440369862
 21
-484.0399993737052
 31
0.0
  0
LINE
  5
413
330
31F
100
AcDbEntity
  8
Fills_ Pattern_Pen_No__153
  6
Continuous
100
AcDbLine
 10
1580.052156022416
 20
-485.1364581567702
 30
0.0
 11
1579.138440369862
 21
-484.0399993737052
 31
0.0
  0
LINE
  5
414
330
31F
100
AcDbEntity
  8
Fills_ Pattern_Pen_No__153
  6
Continuous
100
AcDbLine
 10
1530.052156022416
 20
-435.1364581567702
 30
0.0
 11
1529.138440369862
 21
-434.0399993737052
 31
0.0
  0
LINE
  5
415
330
31F
100
AcDbEntity
  8
Fills_ Pattern_Pen_No__153
  6
Continuous
100
AcDbLine
 10
1580.052156022416
 20
-435.1364581567702
 30
0.0
 11
1579.138440369862
 21
-434.0399993737052
 31
0.0
  0
LINE
  5
416
330
31F
100
AcDbEntity
  8
Fills_ Pattern_Pen_No__153
  6
Continuous
100
AcDbLine
 10
1480.052156022416
 20
-385.1364581567704
 30
0.0
 11
1479.138440369862
 21
-384.0399993737052
 31
0.0
  0
LINE
  5
417
330
31F
100
AcDbEntity
  8
Fills_ Pattern_Pen_No__153
  6
Continuous
100
AcDbLine
 10
1530.052156022416
 20
-385.1364581567704
 30
0.0
 11
1529.138440369862
 21
-384.0399993737052
 31
0.0
  0
LINE
  5
418
330
31F
100
AcDbEntity
  8
Fills_ Pattern_Pen_No__153
  6
Continuous
100
AcDbLine
 10
1580.052156022416
 20
-385.1364581567704
 30
0.0
 11
1579.138440369862
 21
-384.0399993737052
 31
0.0
  0
LINE
  5
419
330
31F
100
AcDbEntity
  8
Fills_ Pattern_Pen_No__153
  6
Continuous
100
AcDbLine
 10
1520.72717186799
 20
-483.5770023930034
 30
0.0
 11
1520.884219741955
 21
-483.8387488496114
 31
0.0
  0
LINE
  5
41A
330
31F
100
AcDbEntity
  8
Fills_ Pattern_Pen_No__153
  6
Continuous
100
AcDbLine
 10
1570.727171867991
 20
-483.5770023930034
 30
0.0
 11
1570.884219741955
 21
-483.8387488496114
 31
0.0
  0
LINE
  5
41B
330
31F
100
AcDbEntity
  8
Fills_ Pattern_Pen_No__153
  6
Continuous
100
AcDbLine
 10
1520.72717186799
 20
-433.5770023930035
 30
0.0
 11
1520.884219741955
 21
-433.8387488496114
 31
0.0
  0
LINE
  5
41C
330
31F
100
AcDbEntity
  8
Fills_ Pattern_Pen_No__153
  6
Continuous
100
AcDbLine
 10
1570.727171867991
 20
-433.5770023930035
 30
0.0
 11
1570.884219741955
 21
-433.8387488496114
 31
0.0
  0
LINE
  5
41D
330
31F
100
AcDbEntity
  8
Fills_ Pattern_Pen_No__153
  6
Continuous
100
AcDbLine
 10
1470.72717186799
 20
-383.5770023930035
 30
0.0
 11
1470.884219741955
 21
-383.8387488496114
 31
0.0
  0
LINE
  5
41E
330
31F
100
AcDbEntity
  8
Fills_ Pattern_Pen_No__153
  6
Continuous
100
AcDbLine
 10
1520.72717186799
 20
-383.5770023930035
 30
0.0
 11
1520.884219741955
 21
-383.8387488496114
 31
0.0
  0
LINE
  5
41F
330
31F
100
AcDbEntity
  8
Fills_ Pattern_Pen_No__153
  6
Continuous
100
AcDbLine
 10
1570.727171867991
 20
-383.5770023930035
 30
0.0
 11
1570.884219741955
 21
-383.8387488496114
 31
0.0
  0
LINE
  5
420
330
31F
100
AcDbEntity
  8
Fills_ Pattern_Pen_No__153
  6
Continuous
100
AcDbLine
 10
1543.342065718912
 20
-474.9917186162647
 30
0.0
 11
1543.027969970983
 21
-475.3581636555157
 31
0.0
  0
LINE
  5
421
330
31F
100
AcDbEntity
  8
Fills_ Pattern_Pen_No__153
  6
Continuous
100
AcDbLine
 10
1493.342065718912
 20
-424.9917186162647
 30
0.0
 11
1493.027969970983
 21
-425.3581636555158
 31
0.0
  0
LINE
  5
422
330
31F
100
AcDbEntity
  8
Fills_ Pattern_Pen_No__153
  6
Continuous
100
AcDbLine
 10
1543.342065718912
 20
-424.9917186162647
 30
0.0
 11
1543.027969970983
 21
-425.3581636555158
 31
0.0
  0
LINE
  5
423
330
31F
100
AcDbEntity
  8
Fills_ Pattern_Pen_No__153
  6
Continuous
100
AcDbLine
 10
1493.342065718912
 20
-374.9917186162647
 30
0.0
 11
1493.027969970983
 21
-375.3581636555158
 31
0.0
  0
LINE
  5
424
330
31F
100
AcDbEntity
  8
Fills_ Pattern_Pen_No__153
  6
Continuous
100
AcDbLine
 10
1543.342065718912
 20
-374.9917186162647
 30
0.0
 11
1543.027969970983
 21
-375.3581636555158
 31
0.0
  0
LINE
  5
425
330
31F
100
AcDbEntity
  8
Fills_ Pattern_Pen_No__153
  6
Continuous
100
AcDbLine
 10
1527.337540222351
 20
-493.5606760218331
 30
0.0
 11
1527.44694564917
 21
-494.2171085827471
 31
0.0
  0
LINE
  5
426
330
31F
100
AcDbEntity
  8
Fills_ Pattern_Pen_No__153
  6
Continuous
100
AcDbLine
 10
1577.337540222351
 20
-493.5606760218331
 30
0.0
 11
1577.44694564917
 21
-494.2171085827471
 31
0.0
  0
LINE
  5
427
330
31F
100
AcDbEntity
  8
Fills_ Pattern_Pen_No__153
  6
Continuous
100
AcDbLine
 10
1527.337540222351
 20
-443.5606760218332
 30
0.0
 11
1527.44694564917
 21
-444.2171085827471
 31
0.0
  0
LINE
  5
428
330
31F
100
AcDbEntity
  8
Fills_ Pattern_Pen_No__153
  6
Continuous
100
AcDbLine
 10
1577.337540222351
 20
-443.5606760218332
 30
0.0
 11
1577.44694564917
 21
-444.2171085827471
 31
0.0
  0
LINE
  5
429
330
31F
100
AcDbEntity
  8
Fills_ Pattern_Pen_No__153
  6
Continuous
100
AcDbLine
 10
1477.337540222351
 20
-393.5606760218332
 30
0.0
 11
1477.44694564917
 21
-394.2171085827472
 31
0.0
  0
LINE
  5
42A
330
31F
100
AcDbEntity
  8
Fills_ Pattern_Pen_No__153
  6
Continuous
100
AcDbLine
 10
1527.337540222351
 20
-393.5606760218332
 30
0.0
 11
1527.44694564917
 21
-394.2171085827472
 31
0.0
  0
LINE
  5
42B
330
31F
100
AcDbEntity
  8
Fills_ Pattern_Pen_No__153
  6
Continuous
100
AcDbLine
 10
1577.337540222351
 20
-393.5606760218332
 30
0.0
 11
1577.44694564917
 21
-394.2171085827472
 31
0.0
  0
LINE
  5
42C
330
31F
100
AcDbEntity
  8
Fills_ Pattern_Pen_No__153
  6
Continuous
100
AcDbLine
 10
1542.327803640272
 20
-482.6201333399334
 30
0.0
 11
1542.54661449391
 21
-483.1671604740283
 31
0.0
  0
LINE
  5
42D
330
31F
100
AcDbEntity
  8
Fills_ Pattern_Pen_No__153
  6
Continuous
100
AcDbLine
 10
1492.327803640272
 20
-432.6201333399333
 30
0.0
 11
1492.54661449391
 21
-433.1671604740283
 31
0.0
  0
LINE
  5
42E
330
31F
100
AcDbEntity
  8
Fills_ Pattern_Pen_No__153
  6
Continuous
100
AcDbLine
 10
1542.327803640272
 20
-432.6201333399333
 30
0.0
 11
1542.54661449391
 21
-433.1671604740283
 31
0.0
  0
LINE
  5
42F
330
31F
100
AcDbEntity
  8
Fills_ Pattern_Pen_No__153
  6
Continuous
100
AcDbLine
 10
1492.327803640272
 20
-382.6201333399334
 30
0.0
 11
1492.54661449391
 21
-383.1671604740283
 31
0.0
  0
LINE
  5
430
330
31F
100
AcDbEntity
  8
Fills_ Pattern_Pen_No__153
  6
Continuous
100
AcDbLine
 10
1542.327803640272
 20
-382.6201333399334
 30
0.0
 11
1542.54661449391
 21
-383.1671604740283
 31
0.0
  0
LINE
  5
431
330
31F
100
AcDbEntity
  8
Fills_ Pattern_Pen_No__153
  6
Continuous
100
AcDbLine
 10
1515.523474069617
 20
-480.4320248035534
 30
0.0
 11
1515.721333726619
 21
-480.1001348886176
 31
0.0
  0
LINE
  5
432
330
31F
100
AcDbEntity
  8
Fills_ Pattern_Pen_No__153
  6
Continuous
100
AcDbLine
 10
1565.523474069617
 20
-480.4320248035534
 30
0.0
 11
1565.721333726618
 21
-480.1001348886176
 31
0.0
  0
LINE
  5
433
330
31F
100
AcDbEntity
  8
Fills_ Pattern_Pen_No__153
  6
Continuous
100
AcDbLine
 10
1515.523474069617
 20
-430.4320248035534
 30
0.0
 11
1515.721333726619
 21
-430.1001348886177
 31
0.0
  0
LINE
  5
434
330
31F
100
AcDbEntity
  8
Fills_ Pattern_Pen_No__153
  6
Continuous
100
AcDbLine
 10
1565.523474069617
 20
-430.4320248035534
 30
0.0
 11
1565.721333726618
 21
-430.1001348886177
 31
0.0
  0
LINE
  5
435
330
31F
100
AcDbEntity
  8
Fills_ Pattern_Pen_No__153
  6
Continuous
100
AcDbLine
 10
1465.523474069617
 20
-380.4320248035534
 30
0.0
 11
1465.721333726619
 21
-380.1001348886177
 31
0.0
  0
LINE
  5
436
330
31F
100
AcDbEntity
  8
Fills_ Pattern_Pen_No__153
  6
Continuous
100
AcDbLine
 10
1515.523474069617
 20
-380.4320248035534
 30
0.0
 11
1515.721333726619
 21
-380.1001348886177
 31
0.0
  0
LINE
  5
437
330
31F
100
AcDbEntity
  8
Fills_ Pattern_Pen_No__153
  6
Continuous
100
AcDbLine
 10
1565.523474069617
 20
-380.4320248035534
 30
0.0
 11
1565.721333726618
 21
-380.1001348886177
 31
0.0
  0
LINE
  5
438
330
31F
100
AcDbEntity
  8
Fills_ Pattern_Pen_No__153
  6
Continuous
100
AcDbLine
 10
1553.715896250203
 20
-516.9889334341116
 30
0.0
 11
1553.95284567408
 21
-517.1074081460499
 31
0.0
  0
LINE
  5
439
330
31F
100
AcDbEntity
  8
Fills_ Pattern_Pen_No__153
  6
Continuous
100
AcDbLine
 10
1503.715896250203
 20
-466.9889334341116
 30
0.0
 11
1503.95284567408
 21
-467.1074081460499
 31
0.0
  0
LINE
  5
43A
330
31F
100
AcDbEntity
  8
Fills_ Pattern_Pen_No__153
  6
Continuous
100
AcDbLine
 10
1553.715896250203
 20
-466.9889334341116
 30
0.0
 11
1553.95284567408
 21
-467.1074081460499
 31
0.0
  0
LINE
  5
43B
330
31F
100
AcDbEntity
  8
Fills_ Pattern_Pen_No__153
  6
Continuous
100
AcDbLine
 10
1503.715896250203
 20
-416.9889334341116
 30
0.0
 11
1503.95284567408
 21
-417.1074081460499
 31
0.0
  0
LINE
  5
43C
330
31F
100
AcDbEntity
  8
Fills_ Pattern_Pen_No__153
  6
Continuous
100
AcDbLine
 10
1553.715896250203
 20
-416.9889334341116
 30
0.0
 11
1553.95284567408
 21
-417.1074081460499
 31
0.0
  0
LINE
  5
43D
330
31F
100
AcDbEntity
  8
Fills_ Pattern_Pen_No__153
  6
Continuous
100
AcDbLine
 10
1453.715896250203
 20
-366.9889334341116
 30
0.0
 11
1453.95284567408
 21
-367.1074081460499
 31
0.0
  0
LINE
  5
43E
330
31F
100
AcDbEntity
  8
Fills_ Pattern_Pen_No__153
  6
Continuous
100
AcDbLine
 10
1503.715896250203
 20
-366.9889334341116
 30
0.0
 11
1503.95284567408
 21
-367.1074081460499
 31
0.0
  0
LINE
  5
43F
330
31F
100
AcDbEntity
  8
Fills_ Pattern_Pen_No__153
  6
Continuous
100
AcDbLine
 10
1553.715896250203
 20
-366.9889334341116
 30
0.0
 11
1553.95284567408
 21
-367.1074081460499
 31
0.0
  0
LINE
  5
440
330
31F
100
AcDbEntity
  8
Fills_ Pattern_Pen_No__153
  6
Continuous
100
AcDbLine
 10
1512.743429201302
 20
-487.1278407099512
 30
0.0
 11
1512.834524968815
 21
-487.3403975008142
 31
0.0
  0
LINE
  5
441
330
31F
100
AcDbEntity
  8
Fills_ Pattern_Pen_No__153
  6
Continuous
100
AcDbLine
 10
1562.743429201302
 20
-487.1278407099512
 30
0.0
 11
1562.834524968816
 21
-487.3403975008142
 31
0.0
  0
LINE
  5
442
330
31F
100
AcDbEntity
  8
Fills_ Pattern_Pen_No__153
  6
Continuous
100
AcDbLine
 10
1512.743429201302
 20
-437.1278407099512
 30
0.0
 11
1512.834524968815
 21
-437.3403975008142
 31
0.0
  0
LINE
  5
443
330
31F
100
AcDbEntity
  8
Fills_ Pattern_Pen_No__153
  6
Continuous
100
AcDbLine
 10
1562.743429201302
 20
-437.1278407099512
 30
0.0
 11
1562.834524968816
 21
-437.3403975008142
 31
0.0
  0
LINE
  5
444
330
31F
100
AcDbEntity
  8
Fills_ Pattern_Pen_No__153
  6
Continuous
100
AcDbLine
 10
1462.743429201302
 20
-387.1278407099512
 30
0.0
 11
1462.834524968815
 21
-387.3403975008142
 31
0.0
  0
LINE
  5
445
330
31F
100
AcDbEntity
  8
Fills_ Pattern_Pen_No__153
  6
Continuous
100
AcDbLine
 10
1512.743429201302
 20
-387.1278407099512
 30
0.0
 11
1512.834524968815
 21
-387.3403975008142
 31
0.0
  0
LINE
  5
446
330
31F
100
AcDbEntity
  8
Fills_ Pattern_Pen_No__153
  6
Continuous
100
AcDbLine
 10
1562.743429201302
 20
-387.1278407099512
 30
0.0
 11
1562.834524968816
 21
-387.3403975008142
 31
0.0
  0
LINE
  5
447
330
31F
100
AcDbEntity
  8
Fills_ Pattern_Pen_No__153
  6
Continuous
100
AcDbLine
 10
1557.943901366629
 20
-512.983730298217
 30
0.0
 11
1557.056831906814
 21
-514.8989857985163
 31
0.0
  0
LINE
  5
448
330
31F
100
AcDbEntity
  8
Fills_ Pattern_Pen_No__153
  6
Continuous
100
AcDbLine
 10
1507.943901366628
 20
-462.983730298217
 30
0.0
 11
1507.056831906814
 21
-464.8989857985163
 31
0.0
  0
LINE
  5
449
330
31F
100
AcDbEntity
  8
Fills_ Pattern_Pen_No__153
  6
Continuous
100
AcDbLine
 10
1557.943901366629
 20
-462.983730298217
 30
0.0
 11
1557.056831906814
 21
-464.8989857985163
 31
0.0
  0
LINE
  5
44A
330
31F
100
AcDbEntity
  8
Fills_ Pattern_Pen_No__153
  6
Continuous
100
AcDbLine
 10
1507.943901366628
 20
-412.983730298217
 30
0.0
 11
1507.056831906814
 21
-414.8989857985162
 31
0.0
  0
LINE
  5
44B
330
31F
100
AcDbEntity
  8
Fills_ Pattern_Pen_No__153
  6
Continuous
100
AcDbLine
 10
1557.943901366629
 20
-412.983730298217
 30
0.0
 11
1557.056831906814
 21
-414.8989857985162
 31
0.0
  0
LINE
  5
44C
330
31F
100
AcDbEntity
  8
Fills_ Pattern_Pen_No__153
  6
Continuous
100
AcDbLine
 10
1457.943901366628
 20
-362.983730298217
 30
0.0
 11
1457.056831906814
 21
-364.8989857985163
 31
0.0
  0
LINE
  5
44D
330
31F
100
AcDbEntity
  8
Fills_ Pattern_Pen_No__153
  6
Continuous
100
AcDbLine
 10
1507.943901366628
 20
-362.983730298217
 30
0.0
 11
1507.056831906814
 21
-364.8989857985163
 31
0.0
  0
LINE
  5
44E
330
31F
100
AcDbEntity
  8
Fills_ Pattern_Pen_No__153
  6
Continuous
100
AcDbLine
 10
1557.943901366629
 20
-362.983730298217
 30
0.0
 11
1557.056831906814
 21
-364.8989857985163
 31
0.0
  0
LINE
  5
44F
330
31F
100
AcDbEntity
  8
Fills_ Pattern_Pen_No__153
  6
Continuous
100
AcDbLine
 10
1542.105161048796
 20
-471.8967961039793
 30
0.0
 11
1542.439955271414
 21
-472.1199922523914
 31
0.0
  0
LINE
  5
450
330
31F
100
AcDbEntity
  8
Fills_ Pattern_Pen_No__153
  6
Continuous
100
AcDbLine
 10
1492.105161048797
 20
-421.8967961039793
 30
0.0
 11
1492.439955271415
 21
-422.1199922523913
 31
0.0
  0
LINE
  5
451
330
31F
100
AcDbEntity
  8
Fills_ Pattern_Pen_No__153
  6
Continuous
100
AcDbLine
 10
1542.105161048796
 20
-421.8967961039793
 30
0.0
 11
1542.439955271414
 21
-422.1199922523913
 31
0.0
  0
LINE
  5
452
330
31F
100
AcDbEntity
  8
Fills_ Pattern_Pen_No__153
  6
Continuous
100
AcDbLine
 10
1492.105161048797
 20
-371.8967961039794
 30
0.0
 11
1492.439955271415
 21
-372.1199922523914
 31
0.0
  0
LINE
  5
453
330
31F
100
AcDbEntity
  8
Fills_ Pattern_Pen_No__153
  6
Continuous
100
AcDbLine
 10
1542.105161048796
 20
-371.8967961039794
 30
0.0
 11
1542.439955271414
 21
-372.1199922523914
 31
0.0
  0
LINE
  5
454
330
31F
100
AcDbEntity
  8
Fills_ Pattern_Pen_No__153
  6
Continuous
100
AcDbLine
 10
1537.05983936502
 20
-505.7287903246789
 30
0.0
 11
1537.189200196172
 21
-506.1815532337095
 31
0.0
  0
LINE
  5
455
330
31F
100
AcDbEntity
  8
Fills_ Pattern_Pen_No__153
  6
Continuous
100
AcDbLine
 10
1537.05983936502
 20
-455.7287903246789
 30
0.0
 11
1537.189200196172
 21
-456.1815532337094
 31
0.0
  0
LINE
  5
456
330
31F
100
AcDbEntity
  8
Fills_ Pattern_Pen_No__153
  6
Continuous
100
AcDbLine
 10
1487.05983936502
 20
-405.7287903246789
 30
0.0
 11
1487.189200196171
 21
-406.1815532337094
 31
0.0
  0
LINE
  5
457
330
31F
100
AcDbEntity
  8
Fills_ Pattern_Pen_No__153
  6
Continuous
100
AcDbLine
 10
1537.05983936502
 20
-405.7287903246789
 30
0.0
 11
1537.189200196172
 21
-406.1815532337094
 31
0.0
  0
LINE
  5
458
330
31F
100
AcDbEntity
  8
Fills_ Pattern_Pen_No__153
  6
Continuous
100
AcDbLine
 10
1517.914436354585
 20
-479.4665028409957
 30
0.0
 11
1517.52635386113
 21
-479.7899049188747
 31
0.0
  0
LINE
  5
459
330
31F
100
AcDbEntity
  8
Fills_ Pattern_Pen_No__153
  6
Continuous
100
AcDbLine
 10
1567.914436354585
 20
-479.4665028409957
 30
0.0
 11
1567.52635386113
 21
-479.7899049188747
 31
0.0
  0
LINE
  5
45A
330
31F
100
AcDbEntity
  8
Fills_ Pattern_Pen_No__153
  6
Continuous
100
AcDbLine
 10
1517.914436354585
 20
-429.4665028409956
 30
0.0
 11
1517.52635386113
 21
-429.7899049188747
 31
0.0
  0
LINE
  5
45B
330
31F
100
AcDbEntity
  8
Fills_ Pattern_Pen_No__153
  6
Continuous
100
AcDbLine
 10
1567.914436354585
 20
-429.4665028409956
 30
0.0
 11
1567.52635386113
 21
-429.7899049188747
 31
0.0
  0
LINE
  5
45C
330
31F
100
AcDbEntity
  8
Fills_ Pattern_Pen_No__153
  6
Continuous
100
AcDbLine
 10
1467.914436354585
 20
-379.4665028409957
 30
0.0
 11
1467.52635386113
 21
-379.7899049188747
 31
0.0
  0
LINE
  5
45D
330
31F
100
AcDbEntity
  8
Fills_ Pattern_Pen_No__153
  6
Continuous
100
AcDbLine
 10
1517.914436354585
 20
-379.4665028409957
 30
0.0
 11
1517.52635386113
 21
-379.7899049188747
 31
0.0
  0
LINE
  5
45E
330
31F
100
AcDbEntity
  8
Fills_ Pattern_Pen_No__153
  6
Continuous
100
AcDbLine
 10
1567.914436354585
 20
-379.4665028409957
 30
0.0
 11
1567.52635386113
 21
-379.7899049188747
 31
0.0
  0
LINE
  5
45F
330
31F
100
AcDbEntity
  8
Fills_ Pattern_Pen_No__153
  6
Continuous
100
AcDbLine
 10
1559.311941083004
 20
-507.5398419608011
 30
0.0
 11
1559.570662745307
 21
-507.7338832075285
 31
0.0
  0
LINE
  5
460
330
31F
100
AcDbEntity
  8
Fills_ Pattern_Pen_No__153
  6
Continuous
100
AcDbLine
 10
1509.311941083004
 20
-457.5398419608011
 30
0.0
 11
1509.570662745307
 21
-457.7338832075285
 31
0.0
  0
LINE
  5
461
330
31F
100
AcDbEntity
  8
Fills_ Pattern_Pen_No__153
  6
Continuous
100
AcDbLine
 10
1559.311941083004
 20
-457.5398419608011
 30
0.0
 11
1559.570662745307
 21
-457.7338832075285
 31
0.0
  0
LINE
  5
462
330
31F
100
AcDbEntity
  8
Fills_ Pattern_Pen_No__153
  6
Continuous
100
AcDbLine
 10
1509.311941083004
 20
-407.5398419608012
 30
0.0
 11
1509.570662745307
 21
-407.7338832075285
 31
0.0
  0
LINE
  5
463
330
31F
100
AcDbEntity
  8
Fills_ Pattern_Pen_No__153
  6
Continuous
100
AcDbLine
 10
1559.311941083004
 20
-407.5398419608012
 30
0.0
 11
1559.570662745307
 21
-407.7338832075285
 31
0.0
  0
LINE
  5
464
330
31F
100
AcDbEntity
  8
Fills_ Pattern_Pen_No__153
  6
Continuous
100
AcDbLine
 10
1459.311941083004
 20
-357.5398419608012
 30
0.0
 11
1459.570662745307
 21
-357.7338832075286
 31
0.0
  0
LINE
  5
465
330
31F
100
AcDbEntity
  8
Fills_ Pattern_Pen_No__153
  6
Continuous
100
AcDbLine
 10
1509.311941083004
 20
-357.5398419608012
 30
0.0
 11
1509.570662745307
 21
-357.7338832075286
 31
0.0
  0
LINE
  5
466
330
31F
100
AcDbEntity
  8
Fills_ Pattern_Pen_No__153
  6
Continuous
100
AcDbLine
 10
1559.311941083004
 20
-357.5398419608012
 30
0.0
 11
1559.570662745307
 21
-357.7338832075286
 31
0.0
  0
LINE
  5
467
330
31F
100
AcDbEntity
  8
Fills_ Pattern_Pen_No__153
  6
Continuous
100
AcDbLine
 10
1548.445631266271
 20
-492.1438642938514
 30
0.0
 11
1548.639672512998
 21
-492.4672663717304
 31
0.0
  0
LINE
  5
468
330
31F
100
AcDbEntity
  8
Fills_ Pattern_Pen_No__153
  6
Continuous
100
AcDbLine
 10
1498.44563126627
 20
-442.1438642938514
 30
0.0
 11
1498.639672512998
 21
-442.4672663717304
 31
0.0
  0
LINE
  5
469
330
31F
100
AcDbEntity
  8
Fills_ Pattern_Pen_No__153
  6
Continuous
100
AcDbLine
 10
1548.445631266271
 20
-442.1438642938514
 30
0.0
 11
1548.639672512998
 21
-442.4672663717304
 31
0.0
  0
LINE
  5
46A
330
31F
100
AcDbEntity
  8
Fills_ Pattern_Pen_No__153
  6
Continuous
100
AcDbLine
 10
1498.44563126627
 20
-392.1438642938515
 30
0.0
 11
1498.639672512998
 21
-392.4672663717305
 31
0.0
  0
LINE
  5
46B
330
31F
100
AcDbEntity
  8
Fills_ Pattern_Pen_No__153
  6
Continuous
100
AcDbLine
 10
1548.445631266271
 20
-392.1438642938515
 30
0.0
 11
1548.639672512998
 21
-392.4672663717305
 31
0.0
  0
LINE
  5
46C
330
31F
100
AcDbEntity
  8
Fills_ Pattern_Pen_No__153
  6
Continuous
100
AcDbLine
 10
1533.116372774807
 20
-496.8655346308844
 30
0.0
 11
1533.504455268262
 21
-496.4774521374297
 31
0.0
  0
LINE
  5
46D
330
31F
100
AcDbEntity
  8
Fills_ Pattern_Pen_No__153
  6
Continuous
100
AcDbLine
 10
1533.116372774807
 20
-446.8655346308844
 30
0.0
 11
1533.504455268262
 21
-446.4774521374297
 31
0.0
  0
LINE
  5
46E
330
31F
100
AcDbEntity
  8
Fills_ Pattern_Pen_No__153
  6
Continuous
100
AcDbLine
 10
1483.116372774807
 20
-396.8655346308846
 30
0.0
 11
1483.504455268262
 21
-396.4774521374297
 31
0.0
  0
LINE
  5
46F
330
31F
100
AcDbEntity
  8
Fills_ Pattern_Pen_No__153
  6
Continuous
100
AcDbLine
 10
1533.116372774807
 20
-396.8655346308846
 30
0.0
 11
1533.504455268262
 21
-396.4774521374297
 31
0.0
  0
LINE
  5
470
330
31F
100
AcDbEntity
  8
Fills_ Pattern_Pen_No__153
  6
Continuous
100
AcDbLine
 10
1556.726763219883
 20
-505.5327103180409
 30
0.0
 11
1557.244206544489
 21
-505.7914319803441
 31
0.0
  0
LINE
  5
471
330
31F
100
AcDbEntity
  8
Fills_ Pattern_Pen_No__153
  6
Continuous
100
AcDbLine
 10
1506.726763219883
 20
-455.5327103180409
 30
0.0
 11
1507.244206544489
 21
-455.7914319803442
 31
0.0
  0
LINE
  5
472
330
31F
100
AcDbEntity
  8
Fills_ Pattern_Pen_No__153
  6
Continuous
100
AcDbLine
 10
1556.726763219883
 20
-455.5327103180409
 30
0.0
 11
1557.244206544489
 21
-455.7914319803442
 31
0.0
  0
LINE
  5
473
330
31F
100
AcDbEntity
  8
Fills_ Pattern_Pen_No__153
  6
Continuous
100
AcDbLine
 10
1506.726763219883
 20
-405.5327103180409
 30
0.0
 11
1507.244206544489
 21
-405.7914319803442
 31
0.0
  0
LINE
  5
474
330
31F
100
AcDbEntity
  8
Fills_ Pattern_Pen_No__153
  6
Continuous
100
AcDbLine
 10
1556.726763219883
 20
-405.5327103180409
 30
0.0
 11
1557.244206544489
 21
-405.7914319803442
 31
0.0
  0
LINE
  5
475
330
31F
100
AcDbEntity
  8
Fills_ Pattern_Pen_No__153
  6
Continuous
100
AcDbLine
 10
1503.428062025517
 20
-473.7079070948393
 30
0.0
 11
1503.557422856669
 21
-473.2551441858086
 31
0.0
  0
LINE
  5
476
330
31F
100
AcDbEntity
  8
Fills_ Pattern_Pen_No__153
  6
Continuous
100
AcDbLine
 10
1553.428062025517
 20
-473.7079070948393
 30
0.0
 11
1553.557422856669
 21
-473.2551441858086
 31
0.0
  0
LINE
  5
477
330
31F
100
AcDbEntity
  8
Fills_ Pattern_Pen_No__153
  6
Continuous
100
AcDbLine
 10
1503.428062025517
 20
-423.7079070948393
 30
0.0
 11
1503.557422856669
 21
-423.2551441858086
 31
0.0
  0
LINE
  5
478
330
31F
100
AcDbEntity
  8
Fills_ Pattern_Pen_No__153
  6
Continuous
100
AcDbLine
 10
1553.428062025517
 20
-423.7079070948393
 30
0.0
 11
1553.557422856669
 21
-423.2551441858086
 31
0.0
  0
LINE
  5
479
330
31F
100
AcDbEntity
  8
Fills_ Pattern_Pen_No__153
  6
Continuous
100
AcDbLine
 10
1453.428062025517
 20
-373.7079070948393
 30
0.0
 11
1453.557422856668
 21
-373.2551441858087
 31
0.0
  0
LINE
  5
47A
330
31F
100
AcDbEntity
  8
Fills_ Pattern_Pen_No__153
  6
Continuous
100
AcDbLine
 10
1503.428062025517
 20
-373.7079070948393
 30
0.0
 11
1503.557422856669
 21
-373.2551441858087
 31
0.0
  0
LINE
  5
47B
330
31F
100
AcDbEntity
  8
Fills_ Pattern_Pen_No__153
  6
Continuous
100
AcDbLine
 10
1553.428062025517
 20
-373.7079070948393
 30
0.0
 11
1553.557422856669
 21
-373.2551441858087
 31
0.0
  0
LINE
  5
47C
330
31F
100
AcDbEntity
  8
Fills_ Pattern_Pen_No__153
  6
Continuous
100
AcDbLine
 10
1552.716577454184
 20
-488.5844026772721
 30
0.0
 11
1553.104659947638
 21
-488.7784439239994
 31
0.0
  0
LINE
  5
47D
330
31F
100
AcDbEntity
  8
Fills_ Pattern_Pen_No__153
  6
Continuous
100
AcDbLine
 10
1502.716577454183
 20
-438.5844026772721
 30
0.0
 11
1503.104659947638
 21
-438.7784439239995
 31
0.0
  0
LINE
  5
47E
330
31F
100
AcDbEntity
  8
Fills_ Pattern_Pen_No__153
  6
Continuous
100
AcDbLine
 10
1552.716577454184
 20
-438.5844026772721
 30
0.0
 11
1553.104659947638
 21
-438.7784439239995
 31
0.0
  0
LINE
  5
47F
330
31F
100
AcDbEntity
  8
Fills_ Pattern_Pen_No__153
  6
Continuous
100
AcDbLine
 10
1502.716577454183
 20
-388.5844026772721
 30
0.0
 11
1503.104659947638
 21
-388.7784439239995
 31
0.0
  0
LINE
  5
480
330
31F
100
AcDbEntity
  8
Fills_ Pattern_Pen_No__153
  6
Continuous
100
AcDbLine
 10
1552.716577454184
 20
-388.5844026772721
 30
0.0
 11
1553.104659947638
 21
-388.7784439239995
 31
0.0
  0
LINE
  5
481
330
31F
100
AcDbEntity
  8
Fills_ Pattern_Pen_No__153
  6
Continuous
100
AcDbLine
 10
1550.064680415576
 20
-481.8596782172999
 30
0.0
 11
1550.323402077879
 21
-482.0537194640273
 31
0.0
  0
LINE
  5
482
330
31F
100
AcDbEntity
  8
Fills_ Pattern_Pen_No__153
  6
Continuous
100
AcDbLine
 10
1500.064680415576
 20
-431.8596782172998
 30
0.0
 11
1500.323402077879
 21
-432.0537194640272
 31
0.0
  0
LINE
  5
483
330
31F
100
AcDbEntity
  8
Fills_ Pattern_Pen_No__153
  6
Continuous
100
AcDbLine
 10
1550.064680415576
 20
-431.8596782172998
 30
0.0
 11
1550.323402077879
 21
-432.0537194640272
 31
0.0
  0
LINE
  5
484
330
31F
100
AcDbEntity
  8
Fills_ Pattern_Pen_No__153
  6
Continuous
100
AcDbLine
 10
1500.064680415576
 20
-381.8596782172999
 30
0.0
 11
1500.323402077879
 21
-382.0537194640273
 31
0.0
  0
LINE
  5
485
330
31F
100
AcDbEntity
  8
Fills_ Pattern_Pen_No__153
  6
Continuous
100
AcDbLine
 10
1550.064680415576
 20
-381.8596782172999
 30
0.0
 11
1550.323402077879
 21
-382.0537194640273
 31
0.0
  0
LINE
  5
486
330
31F
100
AcDbEntity
  8
Fills_ Pattern_Pen_No__153
  6
Continuous
100
AcDbLine
 10
1550.323402077879
 20
-502.0420066368584
 30
0.0
 11
1550.0
 21
-502.1066870524343
 31
0.0
  0
LINE
  5
487
330
31F
100
AcDbEntity
  8
Fills_ Pattern_Pen_No__153
  6
Continuous
100
AcDbLine
 10
1500.323402077879
 20
-452.0420066368584
 30
0.0
 11
1500.0
 21
-452.1066870524342
 31
0.0
  0
LINE
  5
488
330
31F
100
AcDbEntity
  8
Fills_ Pattern_Pen_No__153
  6
Continuous
100
AcDbLine
 10
1550.323402077879
 20
-452.0420066368584
 30
0.0
 11
1550.0
 21
-452.1066870524342
 31
0.0
  0
LINE
  5
489
330
31F
100
AcDbEntity
  8
Fills_ Pattern_Pen_No__153
  6
Continuous
100
AcDbLine
 10
1500.323402077879
 20
-402.0420066368584
 30
0.0
 11
1500.0
 21
-402.1066870524343
 31
0.0
  0
LINE
  5
48A
330
31F
100
AcDbEntity
  8
Fills_ Pattern_Pen_No__153
  6
Continuous
100
AcDbLine
 10
1550.323402077879
 20
-402.0420066368584
 30
0.0
 11
1550.0
 21
-402.1066870524343
 31
0.0
  0
LINE
  5
48B
330
31F
100
AcDbEntity
  8
Fills_ Pattern_Pen_No__153
  6
Continuous
100
AcDbLine
 10
1519.53348550389
 20
-474.1627087637803
 30
0.0
 11
1519.856887581769
 21
-474.2273891793561
 31
0.0
  0
LINE
  5
48C
330
31F
100
AcDbEntity
  8
Fills_ Pattern_Pen_No__153
  6
Continuous
100
AcDbLine
 10
1569.53348550389
 20
-474.1627087637803
 30
0.0
 11
1569.856887581769
 21
-474.2273891793561
 31
0.0
  0
LINE
  5
48D
330
31F
100
AcDbEntity
  8
Fills_ Pattern_Pen_No__153
  6
Continuous
100
AcDbLine
 10
1519.53348550389
 20
-424.1627087637803
 30
0.0
 11
1519.856887581769
 21
-424.2273891793561
 31
0.0
  0
LINE
  5
48E
330
31F
100
AcDbEntity
  8
Fills_ Pattern_Pen_No__153
  6
Continuous
100
AcDbLine
 10
1569.53348550389
 20
-424.1627087637803
 30
0.0
 11
1569.856887581769
 21
-424.2273891793561
 31
0.0
  0
LINE
  5
48F
330
31F
100
AcDbEntity
  8
Fills_ Pattern_Pen_No__153
  6
Continuous
100
AcDbLine
 10
1469.53348550389
 20
-374.1627087637804
 30
0.0
 11
1469.856887581769
 21
-374.2273891793562
 31
0.0
  0
LINE
  5
490
330
31F
100
AcDbEntity
  8
Fills_ Pattern_Pen_No__153
  6
Continuous
100
AcDbLine
 10
1519.53348550389
 20
-374.1627087637804
 30
0.0
 11
1519.856887581769
 21
-374.2273891793562
 31
0.0
  0
LINE
  5
491
330
31F
100
AcDbEntity
  8
Fills_ Pattern_Pen_No__153
  6
Continuous
100
AcDbLine
 10
1569.53348550389
 20
-374.1627087637804
 30
0.0
 11
1569.856887581769
 21
-374.2273891793562
 31
0.0
  0
LINE
  5
492
330
31F
100
AcDbEntity
  8
Fills_ Pattern_Pen_No__153
  6
Continuous
100
AcDbLine
 10
1575.872166230318
 20
-516.4010588946849
 30
0.0
 11
1576.130887892621
 21
-516.9831826348671
 31
0.0
  0
LINE
  5
493
330
31F
100
AcDbEntity
  8
Fills_ Pattern_Pen_No__153
  6
Continuous
100
AcDbLine
 10
1525.872166230318
 20
-466.4010588946849
 30
0.0
 11
1526.130887892621
 21
-466.9831826348671
 31
0.0
  0
LINE
  5
494
330
31F
100
AcDbEntity
  8
Fills_ Pattern_Pen_No__153
  6
Continuous
100
AcDbLine
 10
1575.872166230318
 20
-466.4010588946849
 30
0.0
 11
1576.130887892621
 21
-466.9831826348671
 31
0.0
  0
LINE
  5
495
330
31F
100
AcDbEntity
  8
Fills_ Pattern_Pen_No__153
  6
Continuous
100
AcDbLine
 10
1475.872166230318
 20
-416.4010588946849
 30
0.0
 11
1476.130887892621
 21
-416.9831826348671
 31
0.0
  0
LINE
  5
496
330
31F
100
AcDbEntity
  8
Fills_ Pattern_Pen_No__153
  6
Continuous
100
AcDbLine
 10
1525.872166230318
 20
-416.4010588946849
 30
0.0
 11
1526.130887892621
 21
-416.9831826348671
 31
0.0
  0
LINE
  5
497
330
31F
100
AcDbEntity
  8
Fills_ Pattern_Pen_No__153
  6
Continuous
100
AcDbLine
 10
1575.872166230318
 20
-416.4010588946849
 30
0.0
 11
1576.130887892621
 21
-416.9831826348671
 31
0.0
  0
LINE
  5
498
330
31F
100
AcDbEntity
  8
Fills_ Pattern_Pen_No__153
  6
Continuous
100
AcDbLine
 10
1475.872166230318
 20
-366.401058894685
 30
0.0
 11
1476.130887892621
 21
-366.9831826348672
 31
0.0
  0
LINE
  5
499
330
31F
100
AcDbEntity
  8
Fills_ Pattern_Pen_No__153
  6
Continuous
100
AcDbLine
 10
1525.872166230318
 20
-366.401058894685
 30
0.0
 11
1526.130887892621
 21
-366.9831826348672
 31
0.0
  0
LINE
  5
49A
330
31F
100
AcDbEntity
  8
Fills_ Pattern_Pen_No__153
  6
Continuous
100
AcDbLine
 10
1575.872166230318
 20
-366.401058894685
 30
0.0
 11
1576.130887892621
 21
-366.9831826348672
 31
0.0
  0
LINE
  5
49B
330
31F
100
AcDbEntity
  8
Fills_ Pattern_Pen_No__153
  6
Continuous
100
AcDbLine
 10
1558.542882603089
 20
-514.2444282977459
 30
0.0
 11
1557.943901366629
 21
-512.983730298217
 31
0.0
  0
LINE
  5
49C
330
31F
100
AcDbEntity
  8
Fills_ Pattern_Pen_No__153
  6
Continuous
100
AcDbLine
 10
1508.542882603089
 20
-464.2444282977458
 30
0.0
 11
1507.943901366628
 21
-462.983730298217
 31
0.0
  0
LINE
  5
49D
330
31F
100
AcDbEntity
  8
Fills_ Pattern_Pen_No__153
  6
Continuous
100
AcDbLine
 10
1558.542882603089
 20
-464.2444282977458
 30
0.0
 11
1557.943901366629
 21
-462.983730298217
 31
0.0
  0
LINE
  5
49E
330
31F
100
AcDbEntity
  8
Fills_ Pattern_Pen_No__153
  6
Continuous
100
AcDbLine
 10
1508.542882603089
 20
-414.2444282977458
 30
0.0
 11
1507.943901366628
 21
-412.983730298217
 31
0.0
  0
LINE
  5
49F
330
31F
100
AcDbEntity
  8
Fills_ Pattern_Pen_No__153
  6
Continuous
100
AcDbLine
 10
1558.542882603089
 20
-414.2444282977458
 30
0.0
 11
1557.943901366629
 21
-412.983730298217
 31
0.0
  0
LINE
  5
4A0
330
31F
100
AcDbEntity
  8
Fills_ Pattern_Pen_No__153
  6
Continuous
100
AcDbLine
 10
1458.542882603089
 20
-364.2444282977459
 30
0.0
 11
1457.943901366628
 21
-362.983730298217
 31
0.0
  0
LINE
  5
4A1
330
31F
100
AcDbEntity
  8
Fills_ Pattern_Pen_No__153
  6
Continuous
100
AcDbLine
 10
1508.542882603089
 20
-364.2444282977459
 30
0.0
 11
1507.943901366628
 21
-362.983730298217
 31
0.0
  0
LINE
  5
4A2
330
31F
100
AcDbEntity
  8
Fills_ Pattern_Pen_No__153
  6
Continuous
100
AcDbLine
 10
1558.542882603089
 20
-364.2444282977459
 30
0.0
 11
1557.943901366629
 21
-362.983730298217
 31
0.0
  0
LINE
  5
4A3
330
31F
100
AcDbEntity
  8
Fills_ Pattern_Pen_No__153
  6
Continuous
100
AcDbLine
 10
1499.849073965844
 20
-474.5368297067351
 30
0.0
 11
1500.222006598328
 21
-474.4357326685316
 31
0.0
  0
LINE
  5
4A4
330
31F
100
AcDbEntity
  8
Fills_ Pattern_Pen_No__153
  6
Continuous
100
AcDbLine
 10
1549.849073965844
 20
-474.5368297067351
 30
0.0
 11
1550.222006598328
 21
-474.4357326685316
 31
0.0
  0
LINE
  5
4A5
330
31F
100
AcDbEntity
  8
Fills_ Pattern_Pen_No__153
  6
Continuous
100
AcDbLine
 10
1499.849073965844
 20
-424.5368297067351
 30
0.0
 11
1500.222006598328
 21
-424.4357326685316
 31
0.0
  0
LINE
  5
4A6
330
31F
100
AcDbEntity
  8
Fills_ Pattern_Pen_No__153
  6
Continuous
100
AcDbLine
 10
1549.849073965844
 20
-424.5368297067351
 30
0.0
 11
1550.222006598328
 21
-424.4357326685316
 31
0.0
  0
LINE
  5
4A7
330
31F
100
AcDbEntity
  8
Fills_ Pattern_Pen_No__153
  6
Continuous
100
AcDbLine
 10
1499.849073965844
 20
-374.5368297067352
 30
0.0
 11
1500.222006598328
 21
-374.4357326685317
 31
0.0
  0
LINE
  5
4A8
330
31F
100
AcDbEntity
  8
Fills_ Pattern_Pen_No__153
  6
Continuous
100
AcDbLine
 10
1549.849073965844
 20
-374.5368297067352
 30
0.0
 11
1550.222006598328
 21
-374.4357326685317
 31
0.0
  0
LINE
  5
4A9
330
31F
100
AcDbEntity
  8
Fills_ Pattern_Pen_No__153
  6
Continuous
100
AcDbLine
 10
1507.089590049328
 20
-472.8165267815565
 30
0.0
 11
1507.27714997778
 21
-473.0878084310915
 31
0.0
  0
LINE
  5
4AA
330
31F
100
AcDbEntity
  8
Fills_ Pattern_Pen_No__153
  6
Continuous
100
AcDbLine
 10
1557.089590049328
 20
-472.8165267815565
 30
0.0
 11
1557.27714997778
 21
-473.0878084310915
 31
0.0
  0
LINE
  5
4AB
330
31F
100
AcDbEntity
  8
Fills_ Pattern_Pen_No__153
  6
Continuous
100
AcDbLine
 10
1507.089590049328
 20
-422.8165267815565
 30
0.0
 11
1507.27714997778
 21
-423.0878084310915
 31
0.0
  0
LINE
  5
4AC
330
31F
100
AcDbEntity
  8
Fills_ Pattern_Pen_No__153
  6
Continuous
100
AcDbLine
 10
1557.089590049328
 20
-422.8165267815565
 30
0.0
 11
1557.27714997778
 21
-423.0878084310915
 31
0.0
  0
LINE
  5
4AD
330
31F
100
AcDbEntity
  8
Fills_ Pattern_Pen_No__153
  6
Continuous
100
AcDbLine
 10
1457.089590049327
 20
-372.8165267815566
 30
0.0
 11
1457.27714997778
 21
-373.0878084310915
 31
0.0
  0
LINE
  5
4AE
330
31F
100
AcDbEntity
  8
Fills_ Pattern_Pen_No__153
  6
Continuous
100
AcDbLine
 10
1507.089590049328
 20
-372.8165267815566
 30
0.0
 11
1507.27714997778
 21
-373.0878084310915
 31
0.0
  0
LINE
  5
4AF
330
31F
100
AcDbEntity
  8
Fills_ Pattern_Pen_No__153
  6
Continuous
100
AcDbLine
 10
1557.089590049328
 20
-372.8165267815566
 30
0.0
 11
1557.27714997778
 21
-373.0878084310915
 31
0.0
  0
LINE
  5
4B0
330
31F
100
AcDbEntity
  8
Fills_ Pattern_Pen_No__153
  6
Continuous
100
AcDbLine
 10
1517.041581007128
 20
-471.6418106380261
 30
0.0
 11
1516.822992172289
 21
-472.2401615958361
 31
0.0
  0
LINE
  5
4B1
330
31F
100
AcDbEntity
  8
Fills_ Pattern_Pen_No__153
  6
Continuous
100
AcDbLine
 10
1567.041581007128
 20
-471.6418106380261
 30
0.0
 11
1566.822992172289
 21
-472.2401615958361
 31
0.0
  0
LINE
  5
4B2
330
31F
100
AcDbEntity
  8
Fills_ Pattern_Pen_No__153
  6
Continuous
100
AcDbLine
 10
1517.041581007128
 20
-421.6418106380261
 30
0.0
 11
1516.822992172289
 21
-422.2401615958362
 31
0.0
  0
LINE
  5
4B3
330
31F
100
AcDbEntity
  8
Fills_ Pattern_Pen_No__153
  6
Continuous
100
AcDbLine
 10
1567.041581007128
 20
-421.6418106380261
 30
0.0
 11
1566.822992172289
 21
-422.2401615958362
 31
0.0
  0
LINE
  5
4B4
330
31F
100
AcDbEntity
  8
Fills_ Pattern_Pen_No__153
  6
Continuous
100
AcDbLine
 10
1467.041581007128
 20
-371.6418106380261
 30
0.0
 11
1466.822992172289
 21
-372.2401615958362
 31
0.0
  0
LINE
  5
4B5
330
31F
100
AcDbEntity
  8
Fills_ Pattern_Pen_No__153
  6
Continuous
100
AcDbLine
 10
1517.041581007128
 20
-371.6418106380261
 30
0.0
 11
1516.822992172289
 21
-372.2401615958362
 31
0.0
  0
LINE
  5
4B6
330
31F
100
AcDbEntity
  8
Fills_ Pattern_Pen_No__153
  6
Continuous
100
AcDbLine
 10
1567.041581007128
 20
-371.6418106380261
 30
0.0
 11
1566.822992172289
 21
-372.2401615958362
 31
0.0
  0
LINE
  5
4B7
330
31F
100
AcDbEntity
  8
Fills_ Pattern_Pen_No__153
  6
Continuous
100
AcDbLine
 10
1562.3970016562
 20
-514.5258870541954
 30
0.0
 11
1563.408302734566
 21
-514.0487870668975
 31
0.0
  0
LINE
  5
4B8
330
31F
100
AcDbEntity
  8
Fills_ Pattern_Pen_No__153
  6
Continuous
100
AcDbLine
 10
1512.3970016562
 20
-464.5258870541954
 30
0.0
 11
1513.408302734566
 21
-464.0487870668975
 31
0.0
  0
LINE
  5
4B9
330
31F
100
AcDbEntity
  8
Fills_ Pattern_Pen_No__153
  6
Continuous
100
AcDbLine
 10
1562.3970016562
 20
-464.5258870541954
 30
0.0
 11
1563.408302734566
 21
-464.0487870668975
 31
0.0
  0
LINE
  5
4BA
330
31F
100
AcDbEntity
  8
Fills_ Pattern_Pen_No__153
  6
Continuous
100
AcDbLine
 10
1512.3970016562
 20
-414.5258870541954
 30
0.0
 11
1513.408302734566
 21
-414.0487870668975
 31
0.0
  0
LINE
  5
4BB
330
31F
100
AcDbEntity
  8
Fills_ Pattern_Pen_No__153
  6
Continuous
100
AcDbLine
 10
1562.3970016562
 20
-414.5258870541954
 30
0.0
 11
1563.408302734566
 21
-414.0487870668975
 31
0.0
  0
LINE
  5
4BC
330
31F
100
AcDbEntity
  8
Fills_ Pattern_Pen_No__153
  6
Continuous
100
AcDbLine
 10
1462.3970016562
 20
-364.5258870541955
 30
0.0
 11
1463.408302734566
 21
-364.0487870668975
 31
0.0
  0
LINE
  5
4BD
330
31F
100
AcDbEntity
  8
Fills_ Pattern_Pen_No__153
  6
Continuous
100
AcDbLine
 10
1512.3970016562
 20
-364.5258870541955
 30
0.0
 11
1513.408302734566
 21
-364.0487870668975
 31
0.0
  0
LINE
  5
4BE
330
31F
100
AcDbEntity
  8
Fills_ Pattern_Pen_No__153
  6
Continuous
100
AcDbLine
 10
1562.3970016562
 20
-364.5258870541955
 30
0.0
 11
1563.408302734566
 21
-364.0487870668975
 31
0.0
  0
LINE
  5
4BF
330
31F
100
AcDbEntity
  8
Fills_ Pattern_Pen_No__153
  6
Continuous
100
AcDbLine
 10
1563.408302734566
 20
-514.0487870668975
 30
0.0
 11
1564.661595339896
 21
-515.210931119113
 31
0.0
  0
LINE
  5
4C0
330
31F
100
AcDbEntity
  8
Fills_ Pattern_Pen_No__153
  6
Continuous
100
AcDbLine
 10
1513.408302734566
 20
-464.0487870668975
 30
0.0
 11
1514.661595339896
 21
-465.210931119113
 31
0.0
  0
LINE
  5
4C1
330
31F
100
AcDbEntity
  8
Fills_ Pattern_Pen_No__153
  6
Continuous
100
AcDbLine
 10
1563.408302734566
 20
-464.0487870668975
 30
0.0
 11
1564.661595339896
 21
-465.210931119113
 31
0.0
  0
LINE
  5
4C2
330
31F
100
AcDbEntity
  8
Fills_ Pattern_Pen_No__153
  6
Continuous
100
AcDbLine
 10
1513.408302734566
 20
-414.0487870668975
 30
0.0
 11
1514.661595339896
 21
-415.210931119113
 31
0.0
  0
LINE
  5
4C3
330
31F
100
AcDbEntity
  8
Fills_ Pattern_Pen_No__153
  6
Continuous
100
AcDbLine
 10
1563.408302734566
 20
-414.0487870668975
 30
0.0
 11
1564.661595339896
 21
-415.210931119113
 31
0.0
  0
LINE
  5
4C4
330
31F
100
AcDbEntity
  8
Fills_ Pattern_Pen_No__153
  6
Continuous
100
AcDbLine
 10
1463.408302734566
 20
-364.0487870668975
 30
0.0
 11
1464.661595339896
 21
-365.210931119113
 31
0.0
  0
LINE
  5
4C5
330
31F
100
AcDbEntity
  8
Fills_ Pattern_Pen_No__153
  6
Continuous
100
AcDbLine
 10
1513.408302734566
 20
-364.0487870668975
 30
0.0
 11
1514.661595339896
 21
-365.210931119113
 31
0.0
  0
LINE
  5
4C6
330
31F
100
AcDbEntity
  8
Fills_ Pattern_Pen_No__153
  6
Continuous
100
AcDbLine
 10
1563.408302734566
 20
-364.0487870668975
 30
0.0
 11
1564.661595339896
 21
-365.210931119113
 31
0.0
  0
LINE
  5
4C7
330
31F
100
AcDbEntity
  8
Fills_ Pattern_Pen_No__153
  6
Continuous
100
AcDbLine
 10
1563.066495660385
 20
-516.3047137564923
 30
0.0
 11
1562.3970016562
 21
-514.5258870541954
 31
0.0
  0
LINE
  5
4C8
330
31F
100
AcDbEntity
  8
Fills_ Pattern_Pen_No__153
  6
Continuous
100
AcDbLine
 10
1513.066495660385
 20
-466.3047137564922
 30
0.0
 11
1512.3970016562
 21
-464.5258870541954
 31
0.0
  0
LINE
  5
4C9
330
31F
100
AcDbEntity
  8
Fills_ Pattern_Pen_No__153
  6
Continuous
100
AcDbLine
 10
1563.066495660385
 20
-466.3047137564922
 30
0.0
 11
1562.3970016562
 21
-464.5258870541954
 31
0.0
  0
LINE
  5
4CA
330
31F
100
AcDbEntity
  8
Fills_ Pattern_Pen_No__153
  6
Continuous
100
AcDbLine
 10
1513.066495660385
 20
-416.3047137564923
 30
0.0
 11
1512.3970016562
 21
-414.5258870541954
 31
0.0
  0
LINE
  5
4CB
330
31F
100
AcDbEntity
  8
Fills_ Pattern_Pen_No__153
  6
Continuous
100
AcDbLine
 10
1563.066495660385
 20
-416.3047137564923
 30
0.0
 11
1562.3970016562
 21
-414.5258870541954
 31
0.0
  0
LINE
  5
4CC
330
31F
100
AcDbEntity
  8
Fills_ Pattern_Pen_No__153
  6
Continuous
100
AcDbLine
 10
1463.066495660385
 20
-366.3047137564924
 30
0.0
 11
1462.3970016562
 21
-364.5258870541955
 31
0.0
  0
LINE
  5
4CD
330
31F
100
AcDbEntity
  8
Fills_ Pattern_Pen_No__153
  6
Continuous
100
AcDbLine
 10
1513.066495660385
 20
-366.3047137564924
 30
0.0
 11
1512.3970016562
 21
-364.5258870541955
 31
0.0
  0
LINE
  5
4CE
330
31F
100
AcDbEntity
  8
Fills_ Pattern_Pen_No__153
  6
Continuous
100
AcDbLine
 10
1563.066495660385
 20
-366.3047137564924
 30
0.0
 11
1562.3970016562
 21
-364.5258870541955
 31
0.0
  0
LINE
  5
4CF
330
31F
100
AcDbEntity
  8
Fills_ Pattern_Pen_No__153
  6
Continuous
100
AcDbLine
 10
1564.661595339896
 20
-515.210931119113
 30
0.0
 11
1563.066495660385
 21
-516.3047137564923
 31
0.0
  0
LINE
  5
4D0
330
31F
100
AcDbEntity
  8
Fills_ Pattern_Pen_No__153
  6
Continuous
100
AcDbLine
 10
1514.661595339896
 20
-465.210931119113
 30
0.0
 11
1513.066495660385
 21
-466.3047137564922
 31
0.0
  0
LINE
  5
4D1
330
31F
100
AcDbEntity
  8
Fills_ Pattern_Pen_No__153
  6
Continuous
100
AcDbLine
 10
1564.661595339896
 20
-465.210931119113
 30
0.0
 11
1563.066495660385
 21
-466.3047137564922
 31
0.0
  0
LINE
  5
4D2
330
31F
100
AcDbEntity
  8
Fills_ Pattern_Pen_No__153
  6
Continuous
100
AcDbLine
 10
1514.661595339896
 20
-415.210931119113
 30
0.0
 11
1513.066495660385
 21
-416.3047137564923
 31
0.0
  0
LINE
  5
4D3
330
31F
100
AcDbEntity
  8
Fills_ Pattern_Pen_No__153
  6
Continuous
100
AcDbLine
 10
1564.661595339896
 20
-415.210931119113
 30
0.0
 11
1563.066495660385
 21
-416.3047137564923
 31
0.0
  0
LINE
  5
4D4
330
31F
100
AcDbEntity
  8
Fills_ Pattern_Pen_No__153
  6
Continuous
100
AcDbLine
 10
1464.661595339896
 20
-365.210931119113
 30
0.0
 11
1463.066495660385
 21
-366.3047137564924
 31
0.0
  0
LINE
  5
4D5
330
31F
100
AcDbEntity
  8
Fills_ Pattern_Pen_No__153
  6
Continuous
100
AcDbLine
 10
1514.661595339896
 20
-365.210931119113
 30
0.0
 11
1513.066495660385
 21
-366.3047137564924
 31
0.0
  0
LINE
  5
4D6
330
31F
100
AcDbEntity
  8
Fills_ Pattern_Pen_No__153
  6
Continuous
100
AcDbLine
 10
1564.661595339896
 20
-365.210931119113
 30
0.0
 11
1563.066495660385
 21
-366.3047137564924
 31
0.0
  0
LINE
  5
4D7
330
31F
100
AcDbEntity
  8
Fills_ Pattern_Pen_No__153
  6
Continuous
100
AcDbLine
 10
1557.056831906814
 20
-514.8989857985163
 30
0.0
 11
1558.542882603089
 21
-514.2444282977459
 31
0.0
  0
LINE
  5
4D8
330
31F
100
AcDbEntity
  8
Fills_ Pattern_Pen_No__153
  6
Continuous
100
AcDbLine
 10
1507.056831906814
 20
-464.8989857985163
 30
0.0
 11
1508.542882603089
 21
-464.2444282977458
 31
0.0
  0
LINE
  5
4D9
330
31F
100
AcDbEntity
  8
Fills_ Pattern_Pen_No__153
  6
Continuous
100
AcDbLine
 10
1557.056831906814
 20
-464.8989857985163
 30
0.0
 11
1558.542882603089
 21
-464.2444282977458
 31
0.0
  0
LINE
  5
4DA
330
31F
100
AcDbEntity
  8
Fills_ Pattern_Pen_No__153
  6
Continuous
100
AcDbLine
 10
1507.056831906814
 20
-414.8989857985162
 30
0.0
 11
1508.542882603089
 21
-414.2444282977458
 31
0.0
  0
LINE
  5
4DB
330
31F
100
AcDbEntity
  8
Fills_ Pattern_Pen_No__153
  6
Continuous
100
AcDbLine
 10
1557.056831906814
 20
-414.8989857985162
 30
0.0
 11
1558.542882603089
 21
-414.2444282977458
 31
0.0
  0
LINE
  5
4DC
330
31F
100
AcDbEntity
  8
Fills_ Pattern_Pen_No__153
  6
Continuous
100
AcDbLine
 10
1457.056831906814
 20
-364.8989857985163
 30
0.0
 11
1458.542882603089
 21
-364.2444282977459
 31
0.0
  0
LINE
  5
4DD
330
31F
100
AcDbEntity
  8
Fills_ Pattern_Pen_No__153
  6
Continuous
100
AcDbLine
 10
1507.056831906814
 20
-364.8989857985163
 30
0.0
 11
1508.542882603089
 21
-364.2444282977459
 31
0.0
  0
LINE
  5
4DE
330
31F
100
AcDbEntity
  8
Fills_ Pattern_Pen_No__153
  6
Continuous
100
AcDbLine
 10
1557.056831906814
 20
-364.8989857985163
 30
0.0
 11
1558.542882603089
 21
-364.2444282977459
 31
0.0
  0
LINE
  5
4DF
330
31F
100
AcDbEntity
  8
Fills_ Pattern_Pen_No__153
  6
Continuous
100
AcDbLine
 10
1557.596848520265
 20
-491.7314610359762
 30
0.0
 11
1556.865875998222
 21
-493.1934060800631
 31
0.0
  0
LINE
  5
4E0
330
31F
100
AcDbEntity
  8
Fills_ Pattern_Pen_No__153
  6
Continuous
100
AcDbLine
 10
1507.596848520265
 20
-441.7314610359762
 30
0.0
 11
1506.865875998221
 21
-443.1934060800631
 31
0.0
  0
LINE
  5
4E1
330
31F
100
AcDbEntity
  8
Fills_ Pattern_Pen_No__153
  6
Continuous
100
AcDbLine
 10
1557.596848520265
 20
-441.7314610359762
 30
0.0
 11
1556.865875998222
 21
-443.1934060800631
 31
0.0
  0
LINE
  5
4E2
330
31F
100
AcDbEntity
  8
Fills_ Pattern_Pen_No__153
  6
Continuous
100
AcDbLine
 10
1507.596848520265
 20
-391.7314610359762
 30
0.0
 11
1506.865875998221
 21
-393.1934060800631
 31
0.0
  0
LINE
  5
4E3
330
31F
100
AcDbEntity
  8
Fills_ Pattern_Pen_No__153
  6
Continuous
100
AcDbLine
 10
1557.596848520265
 20
-391.7314610359762
 30
0.0
 11
1556.865875998222
 21
-393.1934060800631
 31
0.0
  0
LINE
  5
4E4
330
31F
100
AcDbEntity
  8
Fills_ Pattern_Pen_No__153
  6
Continuous
100
AcDbLine
 10
1556.865875998222
 20
-493.1934060800631
 30
0.0
 11
1558.510564172819
 21
-492.8279198190413
 31
0.0
  0
LINE
  5
4E5
330
31F
100
AcDbEntity
  8
Fills_ Pattern_Pen_No__153
  6
Continuous
100
AcDbLine
 10
1506.865875998221
 20
-443.1934060800631
 30
0.0
 11
1508.510564172819
 21
-442.8279198190414
 31
0.0
  0
LINE
  5
4E6
330
31F
100
AcDbEntity
  8
Fills_ Pattern_Pen_No__153
  6
Continuous
100
AcDbLine
 10
1556.865875998222
 20
-443.1934060800631
 30
0.0
 11
1558.510564172819
 21
-442.8279198190414
 31
0.0
  0
LINE
  5
4E7
330
31F
100
AcDbEntity
  8
Fills_ Pattern_Pen_No__153
  6
Continuous
100
AcDbLine
 10
1458.283698299975
 20
-392.8783344574512
 30
0.0
 11
1458.510564172819
 21
-392.8279198190414
 31
0.0
  0
LINE
  5
4E8
330
31F
100
AcDbEntity
  8
Fills_ Pattern_Pen_No__153
  6
Continuous
100
AcDbLine
 10
1506.865875998221
 20
-393.1934060800631
 30
0.0
 11
1508.510564172819
 21
-392.8279198190414
 31
0.0
  0
LINE
  5
4E9
330
31F
100
AcDbEntity
  8
Fills_ Pattern_Pen_No__153
  6
Continuous
100
AcDbLine
 10
1556.865875998222
 20
-393.1934060800631
 30
0.0
 11
1558.510564172819
 21
-392.8279198190414
 31
0.0
  0
LINE
  5
4EA
330
31F
100
AcDbEntity
  8
Fills_ Pattern_Pen_No__153
  6
Continuous
100
AcDbLine
 10
1558.510564172819
 20
-492.8279198190413
 30
0.0
 11
1557.596848520265
 21
-491.7314610359762
 31
0.0
  0
LINE
  5
4EB
330
31F
100
AcDbEntity
  8
Fills_ Pattern_Pen_No__153
  6
Continuous
100
AcDbLine
 10
1508.510564172819
 20
-442.8279198190414
 30
0.0
 11
1507.596848520265
 21
-441.7314610359762
 31
0.0
  0
LINE
  5
4EC
330
31F
100
AcDbEntity
  8
Fills_ Pattern_Pen_No__153
  6
Continuous
100
AcDbLine
 10
1558.510564172819
 20
-442.8279198190414
 30
0.0
 11
1557.596848520265
 21
-441.7314610359762
 31
0.0
  0
LINE
  5
4ED
330
31F
100
AcDbEntity
  8
Fills_ Pattern_Pen_No__153
  6
Continuous
100
AcDbLine
 10
1458.510564172819
 20
-392.8279198190414
 30
0.0
 11
1457.986844504156
 21
-392.1994562166461
 31
0.0
  0
LINE
  5
4EE
330
31F
100
AcDbEntity
  8
Fills_ Pattern_Pen_No__153
  6
Continuous
100
AcDbLine
 10
1508.510564172819
 20
-392.8279198190414
 30
0.0
 11
1507.596848520265
 21
-391.7314610359762
 31
0.0
  0
LINE
  5
4EF
330
31F
100
AcDbEntity
  8
Fills_ Pattern_Pen_No__153
  6
Continuous
100
AcDbLine
 10
1558.510564172819
 20
-392.8279198190414
 30
0.0
 11
1557.596848520265
 21
-391.7314610359762
 31
0.0
  0
LINE
  5
4F0
330
31F
100
AcDbEntity
  8
Fills_ Pattern_Pen_No__153
  6
Continuous
100
AcDbLine
 10
1520.786211790674
 20
-490.3115950022043
 30
0.0
 11
1521.005022644312
 21
-490.8586221362994
 31
0.0
  0
LINE
  5
4F1
330
31F
100
AcDbEntity
  8
Fills_ Pattern_Pen_No__153
  6
Continuous
100
AcDbLine
 10
1570.786211790674
 20
-490.3115950022043
 30
0.0
 11
1571.005022644313
 21
-490.8586221362994
 31
0.0
  0
LINE
  5
4F2
330
31F
100
AcDbEntity
  8
Fills_ Pattern_Pen_No__153
  6
Continuous
100
AcDbLine
 10
1520.786211790674
 20
-440.3115950022043
 30
0.0
 11
1521.005022644312
 21
-440.8586221362993
 31
0.0
  0
LINE
  5
4F3
330
31F
100
AcDbEntity
  8
Fills_ Pattern_Pen_No__153
  6
Continuous
100
AcDbLine
 10
1570.786211790674
 20
-440.3115950022043
 30
0.0
 11
1571.005022644313
 21
-440.8586221362993
 31
0.0
  0
LINE
  5
4F4
330
31F
100
AcDbEntity
  8
Fills_ Pattern_Pen_No__153
  6
Continuous
100
AcDbLine
 10
1470.786211790674
 20
-390.3115950022044
 30
0.0
 11
1471.005022644312
 21
-390.8586221362994
 31
0.0
  0
LINE
  5
4F5
330
31F
100
AcDbEntity
  8
Fills_ Pattern_Pen_No__153
  6
Continuous
100
AcDbLine
 10
1520.786211790674
 20
-390.3115950022044
 30
0.0
 11
1521.005022644312
 21
-390.8586221362994
 31
0.0
  0
LINE
  5
4F6
330
31F
100
AcDbEntity
  8
Fills_ Pattern_Pen_No__153
  6
Continuous
100
AcDbLine
 10
1570.786211790674
 20
-390.3115950022044
 30
0.0
 11
1571.005022644313
 21
-390.8586221362994
 31
0.0
  0
LINE
  5
4F7
330
31F
100
AcDbEntity
  8
Fills_ Pattern_Pen_No__153
  6
Continuous
100
AcDbLine
 10
1526.904039416673
 20
-499.8353259561225
 30
0.0
 11
1527.098080663401
 21
-500.1587280340014
 31
0.0
  0
LINE
  5
4F8
330
31F
100
AcDbEntity
  8
Fills_ Pattern_Pen_No__153
  6
Continuous
100
AcDbLine
 10
1576.904039416674
 20
-499.8353259561225
 30
0.0
 11
1577.098080663401
 21
-500.1587280340014
 31
0.0
  0
LINE
  5
4F9
330
31F
100
AcDbEntity
  8
Fills_ Pattern_Pen_No__153
  6
Continuous
100
AcDbLine
 10
1526.904039416673
 20
-449.8353259561225
 30
0.0
 11
1527.098080663401
 21
-450.1587280340014
 31
0.0
  0
LINE
  5
4FA
330
31F
100
AcDbEntity
  8
Fills_ Pattern_Pen_No__153
  6
Continuous
100
AcDbLine
 10
1576.904039416674
 20
-449.8353259561225
 30
0.0
 11
1577.098080663401
 21
-450.1587280340014
 31
0.0
  0
LINE
  5
4FB
330
31F
100
AcDbEntity
  8
Fills_ Pattern_Pen_No__153
  6
Continuous
100
AcDbLine
 10
1476.904039416673
 20
-399.8353259561225
 30
0.0
 11
1477.098080663401
 21
-400.1587280340015
 31
0.0
  0
LINE
  5
4FC
330
31F
100
AcDbEntity
  8
Fills_ Pattern_Pen_No__153
  6
Continuous
100
AcDbLine
 10
1526.904039416673
 20
-399.8353259561225
 30
0.0
 11
1527.098080663401
 21
-400.1587280340015
 31
0.0
  0
LINE
  5
4FD
330
31F
100
AcDbEntity
  8
Fills_ Pattern_Pen_No__153
  6
Continuous
100
AcDbLine
 10
1576.904039416674
 20
-399.8353259561225
 30
0.0
 11
1577.098080663401
 21
-400.1587280340015
 31
0.0
  0
LINE
  5
4FE
330
31F
100
AcDbEntity
  8
Fills_ Pattern_Pen_No__153
  6
Continuous
100
AcDbLine
 10
1518.054423306448
 20
-483.0753879592665
 30
0.0
 11
1516.127925416316
 21
-483.5635021442318
 31
0.0
  0
LINE
  5
4FF
330
31F
100
AcDbEntity
  8
Fills_ Pattern_Pen_No__153
  6
Continuous
100
AcDbLine
 10
1568.054423306448
 20
-483.0753879592665
 30
0.0
 11
1566.127925416316
 21
-483.5635021442318
 31
0.0
  0
LINE
  5
500
330
31F
100
AcDbEntity
  8
Fills_ Pattern_Pen_No__153
  6
Continuous
100
AcDbLine
 10
1518.054423306448
 20
-433.0753879592666
 30
0.0
 11
1516.127925416316
 21
-433.5635021442318
 31
0.0
  0
LINE
  5
501
330
31F
100
AcDbEntity
  8
Fills_ Pattern_Pen_No__153
  6
Continuous
100
AcDbLine
 10
1568.054423306448
 20
-433.0753879592666
 30
0.0
 11
1566.127925416316
 21
-433.5635021442318
 31
0.0
  0
LINE
  5
502
330
31F
100
AcDbEntity
  8
Fills_ Pattern_Pen_No__153
  6
Continuous
100
AcDbLine
 10
1468.054423306448
 20
-383.0753879592667
 30
0.0
 11
1466.127925416316
 21
-383.5635021442318
 31
0.0
  0
LINE
  5
503
330
31F
100
AcDbEntity
  8
Fills_ Pattern_Pen_No__153
  6
Continuous
100
AcDbLine
 10
1518.054423306448
 20
-383.0753879592667
 30
0.0
 11
1516.127925416316
 21
-383.5635021442318
 31
0.0
  0
LINE
  5
504
330
31F
100
AcDbEntity
  8
Fills_ Pattern_Pen_No__153
  6
Continuous
100
AcDbLine
 10
1568.054423306448
 20
-383.0753879592667
 30
0.0
 11
1566.127925416316
 21
-383.5635021442318
 31
0.0
  0
LINE
  5
505
330
31F
100
AcDbEntity
  8
Fills_ Pattern_Pen_No__153
  6
Continuous
100
AcDbLine
 10
1516.127925416316
 20
-483.5635021442318
 30
0.0
 11
1517.89688656618
 21
-484.7498984106458
 31
0.0
  0
LINE
  5
506
330
31F
100
AcDbEntity
  8
Fills_ Pattern_Pen_No__153
  6
Continuous
100
AcDbLine
 10
1566.127925416316
 20
-483.5635021442318
 30
0.0
 11
1567.89688656618
 21
-484.7498984106458
 31
0.0
  0
LINE
  5
507
330
31F
100
AcDbEntity
  8
Fills_ Pattern_Pen_No__153
  6
Continuous
100
AcDbLine
 10
1516.127925416316
 20
-433.5635021442318
 30
0.0
 11
1517.89688656618
 21
-434.7498984106458
 31
0.0
  0
LINE
  5
508
330
31F
100
AcDbEntity
  8
Fills_ Pattern_Pen_No__153
  6
Continuous
100
AcDbLine
 10
1566.127925416316
 20
-433.5635021442318
 30
0.0
 11
1567.89688656618
 21
-434.7498984106458
 31
0.0
  0
LINE
  5
509
330
31F
100
AcDbEntity
  8
Fills_ Pattern_Pen_No__153
  6
Continuous
100
AcDbLine
 10
1466.127925416316
 20
-383.5635021442318
 30
0.0
 11
1467.89688656618
 21
-384.7498984106458
 31
0.0
  0
LINE
  5
50A
330
31F
100
AcDbEntity
  8
Fills_ Pattern_Pen_No__153
  6
Continuous
100
AcDbLine
 10
1516.127925416316
 20
-383.5635021442318
 30
0.0
 11
1517.89688656618
 21
-384.7498984106458
 31
0.0
  0
LINE
  5
50B
330
31F
100
AcDbEntity
  8
Fills_ Pattern_Pen_No__153
  6
Continuous
100
AcDbLine
 10
1566.127925416316
 20
-383.5635021442318
 30
0.0
 11
1567.89688656618
 21
-384.7498984106458
 31
0.0
  0
LINE
  5
50C
330
31F
100
AcDbEntity
  8
Fills_ Pattern_Pen_No__153
  6
Continuous
100
AcDbLine
 10
1517.89688656618
 20
-484.7498984106458
 30
0.0
 11
1518.054423306448
 21
-483.0753879592665
 31
0.0
  0
LINE
  5
50D
330
31F
100
AcDbEntity
  8
Fills_ Pattern_Pen_No__153
  6
Continuous
100
AcDbLine
 10
1567.89688656618
 20
-484.7498984106458
 30
0.0
 11
1568.054423306448
 21
-483.0753879592665
 31
0.0
  0
LINE
  5
50E
330
31F
100
AcDbEntity
  8
Fills_ Pattern_Pen_No__153
  6
Continuous
100
AcDbLine
 10
1517.89688656618
 20
-434.7498984106458
 30
0.0
 11
1518.054423306448
 21
-433.0753879592666
 31
0.0
  0
LINE
  5
50F
330
31F
100
AcDbEntity
  8
Fills_ Pattern_Pen_No__153
  6
Continuous
100
AcDbLine
 10
1567.89688656618
 20
-434.7498984106458
 30
0.0
 11
1568.054423306448
 21
-433.0753879592666
 31
0.0
  0
LINE
  5
510
330
31F
100
AcDbEntity
  8
Fills_ Pattern_Pen_No__153
  6
Continuous
100
AcDbLine
 10
1467.89688656618
 20
-384.7498984106458
 30
0.0
 11
1468.054423306448
 21
-383.0753879592667
 31
0.0
  0
LINE
  5
511
330
31F
100
AcDbEntity
  8
Fills_ Pattern_Pen_No__153
  6
Continuous
100
AcDbLine
 10
1517.89688656618
 20
-384.7498984106458
 30
0.0
 11
1518.054423306448
 21
-383.0753879592667
 31
0.0
  0
LINE
  5
512
330
31F
100
AcDbEntity
  8
Fills_ Pattern_Pen_No__153
  6
Continuous
100
AcDbLine
 10
1567.89688656618
 20
-384.7498984106458
 30
0.0
 11
1568.054423306448
 21
-383.0753879592667
 31
0.0
  0
LINE
  5
513
330
31F
100
AcDbEntity
  8
Fills_ Pattern_Pen_No__153
  6
Continuous
100
AcDbLine
 10
1561.504779621482
 20
-495.6161754752502
 30
0.0
 11
1559.394511084844
 21
-495.5730180745478
 31
0.0
  0
LINE
  5
514
330
31F
100
AcDbEntity
  8
Fills_ Pattern_Pen_No__153
  6
Continuous
100
AcDbLine
 10
1511.504779621482
 20
-445.6161754752502
 30
0.0
 11
1509.394511084844
 21
-445.5730180745478
 31
0.0
  0
LINE
  5
515
330
31F
100
AcDbEntity
  8
Fills_ Pattern_Pen_No__153
  6
Continuous
100
AcDbLine
 10
1561.504779621482
 20
-445.6161754752502
 30
0.0
 11
1559.394511084844
 21
-445.5730180745478
 31
0.0
  0
LINE
  5
516
330
31F
100
AcDbEntity
  8
Fills_ Pattern_Pen_No__153
  6
Continuous
100
AcDbLine
 10
1461.504779621482
 20
-395.6161754752502
 30
0.0
 11
1459.647511067849
 21
-395.5781922130306
 31
0.0
  0
LINE
  5
517
330
31F
100
AcDbEntity
  8
Fills_ Pattern_Pen_No__153
  6
Continuous
100
AcDbLine
 10
1511.504779621482
 20
-395.6161754752502
 30
0.0
 11
1509.394511084844
 21
-395.5730180745478
 31
0.0
  0
LINE
  5
518
330
31F
100
AcDbEntity
  8
Fills_ Pattern_Pen_No__153
  6
Continuous
100
AcDbLine
 10
1561.504779621482
 20
-395.6161754752502
 30
0.0
 11
1559.394511084844
 21
-395.5730180745478
 31
0.0
  0
LINE
  5
519
330
31F
100
AcDbEntity
  8
Fills_ Pattern_Pen_No__153
  6
Continuous
100
AcDbLine
 10
1526.775192650881
 20
-478.5477357137831
 30
0.0
 11
1526.556952946857
 21
-478.8553269051319
 31
0.0
  0
LINE
  5
51A
330
31F
100
AcDbEntity
  8
Fills_ Pattern_Pen_No__153
  6
Continuous
100
AcDbLine
 10
1576.775192650881
 20
-478.5477357137831
 30
0.0
 11
1576.556952946857
 21
-478.8553269051319
 31
0.0
  0
LINE
  5
51B
330
31F
100
AcDbEntity
  8
Fills_ Pattern_Pen_No__153
  6
Continuous
100
AcDbLine
 10
1526.775192650881
 20
-428.5477357137831
 30
0.0
 11
1526.556952946857
 21
-428.8553269051319
 31
0.0
  0
LINE
  5
51C
330
31F
100
AcDbEntity
  8
Fills_ Pattern_Pen_No__153
  6
Continuous
100
AcDbLine
 10
1576.775192650881
 20
-428.5477357137831
 30
0.0
 11
1576.556952946857
 21
-428.8553269051319
 31
0.0
  0
LINE
  5
51D
330
31F
100
AcDbEntity
  8
Fills_ Pattern_Pen_No__153
  6
Continuous
100
AcDbLine
 10
1476.775192650881
 20
-378.5477357137831
 30
0.0
 11
1476.556952946857
 21
-378.855326905132
 31
0.0
  0
LINE
  5
51E
330
31F
100
AcDbEntity
  8
Fills_ Pattern_Pen_No__153
  6
Continuous
100
AcDbLine
 10
1526.775192650881
 20
-378.5477357137831
 30
0.0
 11
1526.556952946857
 21
-378.855326905132
 31
0.0
  0
LINE
  5
51F
330
31F
100
AcDbEntity
  8
Fills_ Pattern_Pen_No__153
  6
Continuous
100
AcDbLine
 10
1576.775192650881
 20
-378.5477357137831
 30
0.0
 11
1576.556952946857
 21
-378.855326905132
 31
0.0
  0
LINE
  5
520
330
31F
100
AcDbEntity
  8
Fills_ Pattern_Pen_No__153
  6
Continuous
100
AcDbLine
 10
1560.590797947568
 20
-496.671057206724
 30
0.0
 11
1561.504779621482
 21
-495.6161754752502
 31
0.0
  0
LINE
  5
521
330
31F
100
AcDbEntity
  8
Fills_ Pattern_Pen_No__153
  6
Continuous
100
AcDbLine
 10
1510.590797947568
 20
-446.671057206724
 30
0.0
 11
1511.504779621482
 21
-445.6161754752502
 31
0.0
  0
LINE
  5
522
330
31F
100
AcDbEntity
  8
Fills_ Pattern_Pen_No__153
  6
Continuous
100
AcDbLine
 10
1560.590797947568
 20
-446.671057206724
 30
0.0
 11
1561.504779621482
 21
-445.6161754752502
 31
0.0
  0
LINE
  5
523
330
31F
100
AcDbEntity
  8
Fills_ Pattern_Pen_No__153
  6
Continuous
100
AcDbLine
 10
1460.590797947568
 20
-396.671057206724
 30
0.0
 11
1461.504779621482
 21
-395.6161754752502
 31
0.0
  0
LINE
  5
524
330
31F
100
AcDbEntity
  8
Fills_ Pattern_Pen_No__153
  6
Continuous
100
AcDbLine
 10
1510.590797947568
 20
-396.671057206724
 30
0.0
 11
1511.504779621482
 21
-395.6161754752502
 31
0.0
  0
LINE
  5
525
330
31F
100
AcDbEntity
  8
Fills_ Pattern_Pen_No__153
  6
Continuous
100
AcDbLine
 10
1560.590797947568
 20
-396.671057206724
 30
0.0
 11
1561.504779621482
 21
-395.6161754752502
 31
0.0
  0
LINE
  5
526
330
31F
100
AcDbEntity
  8
Fills_ Pattern_Pen_No__153
  6
Continuous
100
AcDbLine
 10
1559.394511084844
 20
-495.5730180745478
 30
0.0
 11
1560.590797947568
 21
-496.671057206724
 31
0.0
  0
LINE
  5
527
330
31F
100
AcDbEntity
  8
Fills_ Pattern_Pen_No__153
  6
Continuous
100
AcDbLine
 10
1509.394511084844
 20
-445.5730180745478
 30
0.0
 11
1510.590797947568
 21
-446.671057206724
 31
0.0
  0
LINE
  5
528
330
31F
100
AcDbEntity
  8
Fills_ Pattern_Pen_No__153
  6
Continuous
100
AcDbLine
 10
1559.394511084844
 20
-445.5730180745478
 30
0.0
 11
1560.590797947568
 21
-446.671057206724
 31
0.0
  0
LINE
  5
529
330
31F
100
AcDbEntity
  8
Fills_ Pattern_Pen_No__153
  6
Continuous
100
AcDbLine
 10
1459.86135053779
 20
-396.0015172947191
 30
0.0
 11
1460.590797947568
 21
-396.671057206724
 31
0.0
  0
LINE
  5
52A
330
31F
100
AcDbEntity
  8
Fills_ Pattern_Pen_No__153
  6
Continuous
100
AcDbLine
 10
1509.394511084844
 20
-395.5730180745478
 30
0.0
 11
1510.590797947568
 21
-396.671057206724
 31
0.0
  0
LINE
  5
52B
330
31F
100
AcDbEntity
  8
Fills_ Pattern_Pen_No__153
  6
Continuous
100
AcDbLine
 10
1559.394511084844
 20
-395.5730180745478
 30
0.0
 11
1560.590797947568
 21
-396.671057206724
 31
0.0
  0
LINE
  5
52C
330
31F
100
AcDbEntity
  8
Fills_ Pattern_Pen_No__153
  6
Continuous
100
AcDbLine
 10
1530.828270080473
 20
-486.7628082652974
 30
0.0
 11
1529.19583741635
 21
-486.6805420084368
 31
0.0
  0
LINE
  5
52D
330
31F
100
AcDbEntity
  8
Fills_ Pattern_Pen_No__153
  6
Continuous
100
AcDbLine
 10
1580.137033051608
 20
-486.727973454516
 30
0.0
 11
1579.19583741635
 21
-486.6805420084368
 31
0.0
  0
LINE
  5
52E
330
31F
100
AcDbEntity
  8
Fills_ Pattern_Pen_No__153
  6
Continuous
100
AcDbLine
 10
1530.828270080473
 20
-436.7628082652974
 30
0.0
 11
1529.19583741635
 21
-436.6805420084368
 31
0.0
  0
LINE
  5
52F
330
31F
100
AcDbEntity
  8
Fills_ Pattern_Pen_No__153
  6
Continuous
100
AcDbLine
 10
1580.137033051608
 20
-436.727973454516
 30
0.0
 11
1579.19583741635
 21
-436.6805420084368
 31
0.0
  0
LINE
  5
530
330
31F
100
AcDbEntity
  8
Fills_ Pattern_Pen_No__153
  6
Continuous
100
AcDbLine
 10
1480.828270080473
 20
-386.7628082652974
 30
0.0
 11
1479.19583741635
 21
-386.6805420084368
 31
0.0
  0
LINE
  5
531
330
31F
100
AcDbEntity
  8
Fills_ Pattern_Pen_No__153
  6
Continuous
100
AcDbLine
 10
1530.828270080473
 20
-386.7628082652974
 30
0.0
 11
1529.19583741635
 21
-386.6805420084368
 31
0.0
  0
LINE
  5
532
330
31F
100
AcDbEntity
  8
Fills_ Pattern_Pen_No__153
  6
Continuous
100
AcDbLine
 10
1580.137033051608
 20
-386.727973454516
 30
0.0
 11
1579.19583741635
 21
-386.6805420084368
 31
0.0
  0
LINE
  5
533
330
31F
100
AcDbEntity
  8
Fills_ Pattern_Pen_No__153
  6
Continuous
100
AcDbLine
 10
1529.19583741635
 20
-486.6805420084368
 30
0.0
 11
1530.191105642541
 21
-488.0399612066944
 31
0.0
  0
LINE
  5
534
330
31F
100
AcDbEntity
  8
Fills_ Pattern_Pen_No__153
  6
Continuous
100
AcDbLine
 10
1579.19583741635
 20
-486.6805420084368
 30
0.0
 11
1580.137033051608
 21
-487.9661044148472
 31
0.0
  0
LINE
  5
535
330
31F
100
AcDbEntity
  8
Fills_ Pattern_Pen_No__153
  6
Continuous
100
AcDbLine
 10
1529.19583741635
 20
-436.6805420084368
 30
0.0
 11
1530.191105642541
 21
-438.0399612066944
 31
0.0
  0
LINE
  5
536
330
31F
100
AcDbEntity
  8
Fills_ Pattern_Pen_No__153
  6
Continuous
100
AcDbLine
 10
1579.19583741635
 20
-436.6805420084368
 30
0.0
 11
1580.137033051608
 21
-437.9661044148472
 31
0.0
  0
LINE
  5
537
330
31F
100
AcDbEntity
  8
Fills_ Pattern_Pen_No__153
  6
Continuous
100
AcDbLine
 10
1479.19583741635
 20
-386.6805420084368
 30
0.0
 11
1480.191105642541
 21
-388.0399612066944
 31
0.0
  0
LINE
  5
538
330
31F
100
AcDbEntity
  8
Fills_ Pattern_Pen_No__153
  6
Continuous
100
AcDbLine
 10
1529.19583741635
 20
-386.6805420084368
 30
0.0
 11
1530.191105642541
 21
-388.0399612066944
 31
0.0
  0
LINE
  5
539
330
31F
100
AcDbEntity
  8
Fills_ Pattern_Pen_No__153
  6
Continuous
100
AcDbLine
 10
1579.19583741635
 20
-386.6805420084368
 30
0.0
 11
1580.137033051608
 21
-387.9661044148472
 31
0.0
  0
LINE
  5
53A
330
31F
100
AcDbEntity
  8
Fills_ Pattern_Pen_No__153
  6
Continuous
100
AcDbLine
 10
1530.191105642541
 20
-488.0399612066944
 30
0.0
 11
1530.828270080473
 21
-486.7628082652974
 31
0.0
  0
LINE
  5
53B
330
31F
100
AcDbEntity
  8
Fills_ Pattern_Pen_No__153
  6
Continuous
100
AcDbLine
 10
1530.191105642541
 20
-438.0399612066944
 30
0.0
 11
1530.828270080473
 21
-436.7628082652974
 31
0.0
  0
LINE
  5
53C
330
31F
100
AcDbEntity
  8
Fills_ Pattern_Pen_No__153
  6
Continuous
100
AcDbLine
 10
1480.191105642541
 20
-388.0399612066944
 30
0.0
 11
1480.828270080473
 21
-386.7628082652974
 31
0.0
  0
LINE
  5
53D
330
31F
100
AcDbEntity
  8
Fills_ Pattern_Pen_No__153
  6
Continuous
100
AcDbLine
 10
1530.191105642541
 20
-388.0399612066944
 30
0.0
 11
1530.828270080473
 21
-386.7628082652974
 31
0.0
  0
ENDBLK
  5
53E
330
31F
100
AcDbEntity
  8
0
100
AcDbBlockEnd
  0
BLOCK
  5
540
330
53F
100
AcDbEntity
  8
0
100
AcDbBlockBegin
  2
Fill_3
 70
     0
 10
0.0
 20
0.0
 30
0.0
  3
Fill_3
  1

  0
INSERT
  5
541
330
53F
100
AcDbEntity
  8
Fills_ Pattern_Pen_No__153
  6
Continuous
100
AcDbBlockReference
  2
*X14
 10
0.0
 20
0.0
 30
0.0
  0
LINE
  5
542
330
53F
100
AcDbEntity
  8
Fills_ Pattern_Pen_No__2
  6
Continuous
100
AcDbLine
 10
1611.789636366214
 20
-331.6394728789111
 30
0.0
 11
1609.137033051616
 21
-331.6394728789111
 31
0.0
  0
LINE
  5
543
330
53F
100
AcDbEntity
  8
Fills_ Pattern_Pen_No__2
  6
Continuous
100
AcDbLine
 10
1609.137033051616
 20
-331.6394728789111
 30
0.0
 11
1609.137033051616
 21
-366.6394728789111
 31
0.0
  0
LINE
  5
544
330
53F
100
AcDbEntity
  8
Fills_ Pattern_Pen_No__2
  6
Continuous
100
AcDbLine
 10
1609.137033051616
 20
-366.6394728789111
 30
0.0
 11
1617.947043773621
 21
-366.6394728789111
 31
0.0
  0
LINE
  5
545
330
53F
100
AcDbEntity
  8
Fills_ Pattern_Pen_No__2
  6
Continuous
100
AcDbLine
 10
1617.947043773621
 20
-366.6394728789111
 30
0.0
 11
1611.789636366214
 21
-331.6394728789111
 31
0.0
  0
ENDBLK
  5
546
330
53F
100
AcDbEntity
  8
0
100
AcDbBlockEnd
  0
BLOCK
  5
548
330
547
100
AcDbEntity
  8
0
100
AcDbBlockBegin
  2
*X14
 70
     1
 10
0.0
 20
0.0
 30
0.0
  3
*X14
  1

  0
LINE
  5
549
330
547
100
AcDbEntity
  8
Fills_ Pattern_Pen_No__153
  6
Continuous
100
AcDbLine
 10
1612.318139070491
 20
-366.6394728789111
 30
0.0
 11
1612.472627508937
 21
-366.4258107289157
 31
0.0
  0
LINE
  5
54A
330
547
100
AcDbEntity
  8
Fills_ Pattern_Pen_No__153
  6
Continuous
100
AcDbLine
 10
1612.472627508937
 20
-366.4258107289157
 30
0.0
 11
1613.555761957685
 21
-364.9742666362716
 31
0.0
  0
LINE
  5
54B
330
547
100
AcDbEntity
  8
Fills_ Pattern_Pen_No__153
  6
Continuous
100
AcDbLine
 10
1614.554197701881
 20
-366.6394728789111
 30
0.0
 11
1614.760452487658
 21
-366.3555587102469
 31
0.0
  0
LINE
  5
54C
330
547
100
AcDbEntity
  8
Fills_ Pattern_Pen_No__153
  6
Continuous
100
AcDbLine
 10
1614.760452487658
 20
-366.3555587102469
 30
0.0
 11
1616.936137036054
 21
-363.5045358720874
 31
0.0
  0
LINE
  5
54D
330
547
100
AcDbEntity
  8
Fills_ Pattern_Pen_No__153
  6
Continuous
100
AcDbLine
 10
1609.137033051616
 20
-358.7859369970111
 30
0.0
 11
1610.470352628885
 21
-357.0387514649175
 31
0.0
  0
LINE
  5
54E
330
547
100
AcDbEntity
  8
Fills_ Pattern_Pen_No__153
  6
Continuous
100
AcDbLine
 10
1616.936137036054
 20
-363.5045358720874
 30
0.0
 11
1617.312810021701
 21
-363.0343547101012
 31
0.0
  0
LINE
  5
54F
330
547
100
AcDbEntity
  8
Fills_ Pattern_Pen_No__153
  6
Continuous
100
AcDbLine
 10
1610.470352628885
 20
-357.0387514649175
 30
0.0
 11
1612.712646384517
 21
-354.2398135964947
 31
0.0
  0
LINE
  5
550
330
547
100
AcDbEntity
  8
Fills_ Pattern_Pen_No__153
  6
Continuous
100
AcDbLine
 10
1612.712646384517
 20
-354.2398135964947
 30
0.0
 11
1615.020302911868
 21
-351.494516557991
 31
0.0
  0
LINE
  5
551
330
547
100
AcDbEntity
  8
Fills_ Pattern_Pen_No__153
  6
Continuous
100
AcDbLine
 10
1615.020302911868
 20
-351.494516557991
 30
0.0
 11
1615.239011518223
 21
-351.2464474271748
 31
0.0
  0
LINE
  5
552
330
547
100
AcDbEntity
  8
Fills_ Pattern_Pen_No__153
  6
Continuous
100
AcDbLine
 10
1609.137033051616
 20
-344.368017971578
 30
0.0
 11
1610.926255034704
 21
-342.3386019848117
 31
0.0
  0
LINE
  5
553
330
547
100
AcDbEntity
  8
Fills_ Pattern_Pen_No__153
  6
Continuous
100
AcDbLine
 10
1610.926255034704
 20
-342.3386019848117
 30
0.0
 11
1611.269115512326
 21
-341.9538593178633
 31
0.0
  0
LINE
  5
554
330
547
100
AcDbEntity
  8
Fills_ Pattern_Pen_No__153
  6
Continuous
100
AcDbLine
 10
1611.269115512326
 20
-341.9538593178633
 30
0.0
 11
1611.606969239082
 21
-341.5647127051283
 31
0.0
  0
LINE
  5
555
330
547
100
AcDbEntity
  8
Fills_ Pattern_Pen_No__153
  6
Continuous
100
AcDbLine
 10
1611.606969239082
 20
-341.5647127051283
 30
0.0
 11
1611.939759652962
 21
-341.1712272958494
 31
0.0
  0
LINE
  5
556
330
547
100
AcDbEntity
  8
Fills_ Pattern_Pen_No__153
  6
Continuous
100
AcDbLine
 10
1611.939759652962
 20
-341.1712272958494
 30
0.0
 11
1612.267431039635
 21
-340.7734689656515
 31
0.0
  0
LINE
  5
557
330
547
100
AcDbEntity
  8
Fills_ Pattern_Pen_No__153
  6
Continuous
100
AcDbLine
 10
1612.267431039635
 20
-340.7734689656515
 30
0.0
 11
1612.589928541774
 21
-340.3715043055135
 31
0.0
  0
LINE
  5
558
330
547
100
AcDbEntity
  8
Fills_ Pattern_Pen_No__153
  6
Continuous
100
AcDbLine
 10
1612.589928541774
 20
-340.3715043055135
 30
0.0
 11
1612.907198168243
 21
-339.9654006106202
 31
0.0
  0
LINE
  5
559
330
547
100
AcDbEntity
  8
Fills_ Pattern_Pen_No__153
  6
Continuous
100
AcDbLine
 10
1612.907198168243
 20
-339.9654006106202
 30
0.0
 11
1613.189166082832
 21
-339.5946944260012
 31
0.0
  0
LINE
  5
55A
330
547
100
AcDbEntity
  8
Fills_ Pattern_Pen_No__153
  6
Continuous
100
AcDbLine
 10
1609.137033051616
 20
-362.9283820170373
 30
0.0
 11
1610.32860477312
 21
-361.2549916001944
 31
0.0
  0
LINE
  5
55B
330
547
100
AcDbEntity
  8
Fills_ Pattern_Pen_No__153
  6
Continuous
100
AcDbLine
 10
1617.564930885551
 20
-366.6394728789111
 30
0.0
 11
1617.871386772371
 21
-366.2094225560161
 31
0.0
  0
LINE
  5
55C
330
547
100
AcDbEntity
  8
Fills_ Pattern_Pen_No__153
  6
Continuous
100
AcDbLine
 10
1610.32860477312
 20
-361.2549916001944
 30
0.0
 11
1612.041103475758
 21
-358.8518378292932
 31
0.0
  0
LINE
  5
55D
330
547
100
AcDbEntity
  8
Fills_ Pattern_Pen_No__153
  6
Continuous
100
AcDbLine
 10
1612.041103475758
 20
-358.8518378292932
 30
0.0
 11
1613.754453937338
 21
-356.449291253483
 31
0.0
  0
LINE
  5
55E
330
547
100
AcDbEntity
  8
Fills_ Pattern_Pen_No__153
  6
Continuous
100
AcDbLine
 10
1613.754453937338
 20
-356.449291253483
 30
0.0
 11
1615.468655942571
 21
-354.0473521746581
 31
0.0
  0
LINE
  5
55F
330
547
100
AcDbEntity
  8
Fills_ Pattern_Pen_No__153
  6
Continuous
100
AcDbLine
 10
1615.468655942571
 20
-354.0473521746581
 30
0.0
 11
1615.679818128072
 21
-353.7520849989438
 31
0.0
  0
LINE
  5
560
330
547
100
AcDbEntity
  8
Fills_ Pattern_Pen_No__153
  6
Continuous
100
AcDbLine
 10
1609.137033051616
 20
-347.3939702964336
 30
0.0
 11
1609.91446894083
 21
-346.306885036529
 31
0.0
  0
LINE
  5
561
330
547
100
AcDbEntity
  8
Fills_ Pattern_Pen_No__153
  6
Continuous
100
AcDbLine
 10
1609.91446894083
 20
-346.306885036529
 30
0.0
 11
1610.828114923561
 21
-345.0336698495206
 31
0.0
  0
LINE
  5
562
330
547
100
AcDbEntity
  8
Fills_ Pattern_Pen_No__153
  6
Continuous
100
AcDbLine
 10
1610.828114923561
 20
-345.0336698495206
 30
0.0
 11
1611.743807121059
 21
-343.761925498784
 31
0.0
  0
LINE
  5
563
330
547
100
AcDbEntity
  8
Fills_ Pattern_Pen_No__153
  6
Continuous
100
AcDbLine
 10
1611.743807121059
 20
-343.761925498784
 30
0.0
 11
1612.661543165497
 21
-342.4916552728368
 31
0.0
  0
LINE
  5
564
330
547
100
AcDbEntity
  8
Fills_ Pattern_Pen_No__153
  6
Continuous
100
AcDbLine
 10
1612.661543165497
 20
-342.4916552728368
 30
0.0
 11
1613.496248538948
 21
-341.3402157555034
 31
0.0
  0
LINE
  5
565
330
547
100
AcDbEntity
  8
Fills_ Pattern_Pen_No__153
  6
Continuous
100
AcDbLine
 10
1609.137033051616
 20
-331.9838383707843
 30
0.0
 11
1609.389214841276
 21
-331.6394728789111
 31
0.0
  0
LINE
  5
566
330
547
100
AcDbEntity
  8
Fills_ Pattern_Pen_No__153
  6
Continuous
100
AcDbLine
 10
1609.137033051616
 20
-365.5269431455075
 30
0.0
 11
1609.452406121038
 21
-365.0722253990962
 31
0.0
  0
LINE
  5
567
330
547
100
AcDbEntity
  8
Fills_ Pattern_Pen_No__153
  6
Continuous
100
AcDbLine
 10
1609.452406121038
 20
-365.0722253990962
 30
0.0
 11
1611.108106917254
 21
-362.7380437809908
 31
0.0
  0
LINE
  5
568
330
547
100
AcDbEntity
  8
Fills_ Pattern_Pen_No__153
  6
Continuous
100
AcDbLine
 10
1611.108106917254
 20
-362.7380437809908
 30
0.0
 11
1612.788386609394
 21
-360.4214926572133
 31
0.0
  0
LINE
  5
569
330
547
100
AcDbEntity
  8
Fills_ Pattern_Pen_No__153
  6
Continuous
100
AcDbLine
 10
1612.788386609394
 20
-360.4214926572133
 30
0.0
 11
1614.493057477082
 21
-358.1228308322055
 31
0.0
  0
LINE
  5
56A
330
547
100
AcDbEntity
  8
Fills_ Pattern_Pen_No__153
  6
Continuous
100
AcDbLine
 10
1614.493057477082
 20
-358.1228308322055
 30
0.0
 11
1616.08038946866
 21
-356.0290168296547
 31
0.0
  0
LINE
  5
56B
330
547
100
AcDbEntity
  8
Fills_ Pattern_Pen_No__153
  6
Continuous
100
AcDbLine
 10
1609.137033051616
 20
-350.1931869416438
 30
0.0
 11
1609.756144667796
 21
-349.3765307046512
 31
0.0
  0
LINE
  5
56C
330
547
100
AcDbEntity
  8
Fills_ Pattern_Pen_No__153
  6
Continuous
100
AcDbLine
 10
1609.756144667796
 20
-349.3765307046512
 30
0.0
 11
1611.09449367322
 21
-347.1260282542659
 31
0.0
  0
LINE
  5
56D
330
547
100
AcDbEntity
  8
Fills_ Pattern_Pen_No__153
  6
Continuous
100
AcDbLine
 10
1611.09449367322
 20
-347.1260282542659
 30
0.0
 11
1612.451326851044
 21
-344.886621398184
 31
0.0
  0
LINE
  5
56E
330
547
100
AcDbEntity
  8
Fills_ Pattern_Pen_No__153
  6
Continuous
100
AcDbLine
 10
1612.451326851044
 20
-344.886621398184
 30
0.0
 11
1613.749986371064
 21
-342.7825150117428
 31
0.0
  0
LINE
  5
56F
330
547
100
AcDbEntity
  8
Fills_ Pattern_Pen_No__153
  6
Continuous
100
AcDbLine
 10
1609.137033051616
 20
-333.3780503532812
 30
0.0
 11
1610.166020961485
 21
-331.7707043013736
 31
0.0
  0
LINE
  5
570
330
547
100
AcDbEntity
  8
Fills_ Pattern_Pen_No__153
  6
Continuous
100
AcDbLine
 10
1610.166020961485
 20
-331.7707043013736
 30
0.0
 11
1610.251563894683
 21
-331.6394728789111
 31
0.0
  0
LINE
  5
571
330
547
100
AcDbEntity
  8
Fills_ Pattern_Pen_No__153
  6
Continuous
100
AcDbLine
 10
1610.005120990528
 20
-366.6394728789111
 30
0.0
 11
1610.039017348387
 21
-366.5917295620502
 31
0.0
  0
LINE
  5
572
330
547
100
AcDbEntity
  8
Fills_ Pattern_Pen_No__153
  6
Continuous
100
AcDbLine
 10
1610.039017348387
 20
-366.5917295620502
 30
0.0
 11
1611.501202995328
 21
-364.5905307184433
 31
0.0
  0
LINE
  5
573
330
547
100
AcDbEntity
  8
Fills_ Pattern_Pen_No__153
  6
Continuous
100
AcDbLine
 10
1611.501202995328
 20
-364.5905307184433
 30
0.0
 11
1612.990505313083
 21
-362.6094294378158
 31
0.0
  0
LINE
  5
574
330
547
100
AcDbEntity
  8
Fills_ Pattern_Pen_No__153
  6
Continuous
100
AcDbLine
 10
1612.990505313083
 20
-362.6094294378158
 30
0.0
 11
1614.506648099228
 21
-360.648793130442
 31
0.0
  0
LINE
  5
575
330
547
100
AcDbEntity
  8
Fills_ Pattern_Pen_No__153
  6
Continuous
100
AcDbLine
 10
1614.506648099228
 20
-360.648793130442
 30
0.0
 11
1616.049350173573
 21
-358.7089854112117
 31
0.0
  0
LINE
  5
576
330
547
100
AcDbEntity
  8
Fills_ Pattern_Pen_No__153
  6
Continuous
100
AcDbLine
 10
1609.137033051616
 20
-352.8046753297968
 30
0.0
 11
1609.583565766404
 21
-352.2432010040419
 31
0.0
  0
LINE
  5
577
330
547
100
AcDbEntity
  8
Fills_ Pattern_Pen_No__153
  6
Continuous
100
AcDbLine
 10
1616.049350173573
 20
-358.7089854112117
 30
0.0
 11
1616.462898453525
 21
-358.2032784278356
 31
0.0
  0
LINE
  5
578
330
547
100
AcDbEntity
  8
Fills_ Pattern_Pen_No__153
  6
Continuous
100
AcDbLine
 10
1609.583565766404
 20
-352.2432010040419
 30
0.0
 11
1611.152541023135
 21
-350.3245816250254
 31
0.0
  0
LINE
  5
579
330
547
100
AcDbEntity
  8
Fills_ Pattern_Pen_No__153
  6
Continuous
100
AcDbLine
 10
1611.152541023135
 20
-350.3245816250254
 30
0.0
 11
1611.683840917718
 21
-349.720604057567
 31
0.0
  0
LINE
  5
57A
330
547
100
AcDbEntity
  8
Fills_ Pattern_Pen_No__153
  6
Continuous
100
AcDbLine
 10
1611.683840917718
 20
-349.720604057567
 30
0.0
 11
1612.179980162729
 21
-349.0874260971655
 31
0.0
  0
LINE
  5
57B
330
547
100
AcDbEntity
  8
Fills_ Pattern_Pen_No__153
  6
Continuous
100
AcDbLine
 10
1612.179980162729
 20
-349.0874260971655
 30
0.0
 11
1612.6393570695
 21
-348.4270918352176
 31
0.0
  0
LINE
  5
57C
330
547
100
AcDbEntity
  8
Fills_ Pattern_Pen_No__153
  6
Continuous
100
AcDbLine
 10
1612.6393570695
 20
-348.4270918352176
 30
0.0
 11
1613.060488629399
 21
-347.7417330319359
 31
0.0
  0
LINE
  5
57D
330
547
100
AcDbEntity
  8
Fills_ Pattern_Pen_No__153
  6
Continuous
100
AcDbLine
 10
1613.060488629399
 20
-347.7417330319359
 30
0.0
 11
1613.442015301421
 21
-347.0335622343786
 31
0.0
  0
LINE
  5
57E
330
547
100
AcDbEntity
  8
Fills_ Pattern_Pen_No__153
  6
Continuous
100
AcDbLine
 10
1613.442015301421
 20
-347.0335622343786
 30
0.0
 11
1613.782705401213
 21
-346.3048656336721
 31
0.0
  0
LINE
  5
57F
330
547
100
AcDbEntity
  8
Fills_ Pattern_Pen_No__153
  6
Continuous
100
AcDbLine
 10
1613.782705401213
 20
-346.3048656336721
 30
0.0
 11
1614.081459077318
 21
-345.5579956844901
 31
0.0
  0
LINE
  5
580
330
547
100
AcDbEntity
  8
Fills_ Pattern_Pen_No__153
  6
Continuous
100
AcDbLine
 10
1614.081459077318
 20
-345.5579956844901
 30
0.0
 11
1614.184323993029
 21
-345.2513814944885
 31
0.0
  0
LINE
  5
581
330
547
100
AcDbEntity
  8
Fills_ Pattern_Pen_No__153
  6
Continuous
100
AcDbLine
 10
1609.137033051616
 20
-336.1086140280832
 30
0.0
 11
1610.008778215961
 21
-334.6134156648156
 31
0.0
  0
LINE
  5
582
330
547
100
AcDbEntity
  8
Fills_ Pattern_Pen_No__153
  6
Continuous
100
AcDbLine
 10
1610.008778215961
 20
-334.6134156648156
 30
0.0
 11
1611.11025922414
 21
-332.7745767485778
 31
0.0
  0
LINE
  5
583
330
547
100
AcDbEntity
  8
Fills_ Pattern_Pen_No__153
  6
Continuous
100
AcDbLine
 10
1611.11025922414
 20
-332.7745767485778
 30
0.0
 11
1611.79385193422
 21
-331.6634350549447
 31
0.0
  0
LINE
  5
584
330
547
100
AcDbEntity
  8
Fills_ Pattern_Pen_No__153
  6
Continuous
100
AcDbLine
 10
1613.555761957685
 20
-364.9742666362716
 30
0.0
 11
1614.21699544747
 21
-364.1100186916416
 31
0.0
  0
LINE
  5
585
330
547
100
AcDbEntity
  8
Fills_ Pattern_Pen_No__153
  6
Continuous
100
AcDbLine
 10
1614.21699544747
 20
-364.1100186916416
 30
0.0
 11
1614.886007683703
 21
-363.2517781277072
 31
0.0
  0
LINE
  5
586
330
547
100
AcDbEntity
  8
Fills_ Pattern_Pen_No__153
  6
Continuous
100
AcDbLine
 10
1614.886007683703
 20
-363.2517781277072
 30
0.0
 11
1615.562744091631
 21
-362.399614955542
 31
0.0
  0
LINE
  5
587
330
547
100
AcDbEntity
  8
Fills_ Pattern_Pen_No__153
  6
Continuous
100
AcDbLine
 10
1615.562744091631
 20
-362.399614955542
 30
0.0
 11
1616.247149466405
 21
-361.5535986904554
 31
0.0
  0
LINE
  5
588
330
547
100
AcDbEntity
  8
Fills_ Pattern_Pen_No__153
  6
Continuous
100
AcDbLine
 10
1609.137033051616
 20
-355.8842945253377
 30
0.0
 11
1609.781365059235
 21
-355.0878142832856
 31
0.0
  0
LINE
  5
589
330
547
100
AcDbEntity
  8
Fills_ Pattern_Pen_No__153
  6
Continuous
100
AcDbLine
 10
1616.247149466405
 20
-361.5535986904554
 30
0.0
 11
1616.91065201649
 21
-360.7484039436396
 31
0.0
  0
LINE
  5
58A
330
547
100
AcDbEntity
  8
Fills_ Pattern_Pen_No__153
  6
Continuous
100
AcDbLine
 10
1609.781365059235
 20
-355.0878142832856
 30
0.0
 11
1610.473383570407
 21
-354.2480139391523
 31
0.0
  0
LINE
  5
58B
330
547
100
AcDbEntity
  8
Fills_ Pattern_Pen_No__153
  6
Continuous
100
AcDbLine
 10
1610.473383570407
 20
-354.2480139391523
 30
0.0
 11
1611.172958766486
 21
-353.4144980227829
 31
0.0
  0
LINE
  5
58C
330
547
100
AcDbEntity
  8
Fills_ Pattern_Pen_No__153
  6
Continuous
100
AcDbLine
 10
1611.172958766486
 20
-353.4144980227829
 30
0.0
 11
1611.880033579545
 21
-352.5873345283345
 31
0.0
  0
LINE
  5
58D
330
547
100
AcDbEntity
  8
Fills_ Pattern_Pen_No__153
  6
Continuous
100
AcDbLine
 10
1611.880033579545
 20
-352.5873345283345
 30
0.0
 11
1612.594550329875
 21
-351.7665909317654
 31
0.0
  0
LINE
  5
58E
330
547
100
AcDbEntity
  8
Fills_ Pattern_Pen_No__153
  6
Continuous
100
AcDbLine
 10
1612.594550329875
 20
-351.7665909317654
 30
0.0
 11
1613.776772104073
 21
-350.5963679560255
 31
0.0
  0
LINE
  5
58F
330
547
100
AcDbEntity
  8
Fills_ Pattern_Pen_No__153
  6
Continuous
100
AcDbLine
 10
1613.776772104073
 20
-350.5963679560255
 30
0.0
 11
1614.880439609625
 21
-349.3517844218562
 31
0.0
  0
LINE
  5
590
330
547
100
AcDbEntity
  8
Fills_ Pattern_Pen_No__153
  6
Continuous
100
AcDbLine
 10
1614.880439609625
 20
-349.3517844218562
 30
0.0
 11
1614.901028259123
 21
-349.3252794280792
 31
0.0
  0
LINE
  5
591
330
547
100
AcDbEntity
  8
Fills_ Pattern_Pen_No__153
  6
Continuous
100
AcDbLine
 10
1609.137033051616
 20
-341.9560400190823
 30
0.0
 11
1609.435101697103
 21
-341.5723185129905
 31
0.0
  0
LINE
  5
592
330
547
100
AcDbEntity
  8
Fills_ Pattern_Pen_No__153
  6
Continuous
100
AcDbLine
 10
1609.435101697103
 20
-341.5723185129905
 30
0.0
 11
1610.368012329901
 21
-340.1950938081764
 31
0.0
  0
LINE
  5
593
330
547
100
AcDbEntity
  8
Fills_ Pattern_Pen_No__153
  6
Continuous
100
AcDbLine
 10
1610.368012329901
 20
-340.1950938081764
 30
0.0
 11
1611.209442386112
 21
-338.760149350421
 31
0.0
  0
LINE
  5
594
330
547
100
AcDbEntity
  8
Fills_ Pattern_Pen_No__153
  6
Continuous
100
AcDbLine
 10
1611.209442386112
 20
-338.760149350421
 30
0.0
 11
1611.955833967019
 21
-337.273552651821
 31
0.0
  0
LINE
  5
595
330
547
100
AcDbEntity
  8
Fills_ Pattern_Pen_No__153
  6
Continuous
100
AcDbLine
 10
1611.955833967019
 20
-337.273552651821
 30
0.0
 11
1612.53853674006
 21
-335.8963802670853
 31
0.0
  0
ENDBLK
  5
596
330
547
100
AcDbEntity
  8
0
100
AcDbBlockEnd
  0
BLOCK
  5
598
330
597
100
AcDbEntity
  8
0
100
AcDbBlockBegin
  2
Line_1
 70
     0
 10
1541.13703305161
 20
-357.1255854503157
 30
0.0
  3
Line_1
  1

  0
LINE
  5
599
330
597
100
AcDbEntity
  8
Documentation_ Floor_Pen_No__2
  6
Continuous
100
AcDbLine
 10
1541.13703305161
 20
-357.1255854503157
 30
0.0
 11
1541.13703305161
 21
-517.1255854503158
 31
0.0
  0
LINE
  5
59A
330
597
100
AcDbEntity
  8
Documentation_ Floor_Pen_No__2
  6
Continuous
100
AcDbLine
 10
1541.13703305161
 20
-357.1255854503157
 30
0.0
 11
1544.13703305161
 21
-360.1255854503157
 31
0.0
  0
LINE
  5
59B
330
597
100
AcDbEntity
  8
Documentation_ Floor_Pen_No__2
  6
Continuous
100
AcDbLine
 10
1541.13703305161
 20
-357.1255854503157
 30
0.0
 11
1538.13703305161
 21
-360.1255854503157
 31
0.0
  0
LINE
  5
59C
330
597
100
AcDbEntity
  8
Documentation_ Floor_Pen_No__2
  6
Continuous
100
AcDbLine
 10
1541.13703305161
 20
-517.1255854503158
 30
0.0
 11
1538.13703305161
 21
-514.1255854503158
 31
0.0
  0
LINE
  5
59D
330
597
100
AcDbEntity
  8
Documentation_ Floor_Pen_No__2
  6
Continuous
100
AcDbLine
 10
1541.13703305161
 20
-517.1255854503158
 30
0.0
 11
1544.13703305161
 21
-514.1255854503158
 31
0.0
  0
ENDBLK
  5
59E
330
597
100
AcDbEntity
  8
0
100
AcDbBlockEnd
  0
BLOCK
  5
5A0
330
59F
100
AcDbEntity
  8
0
100
AcDbBlockBegin
  2
Line_2
 70
     0
 10
1655.414679149353
 20
-407.1255854503156
 30
0.0
  3
Line_2
  1

  0
LINE
  5
5A1
330
59F
100
AcDbEntity
  8
Documentation_ Floor_Pen_No__2
  6
Continuous
100
AcDbLine
 10
1655.414679149353
 20
-407.1255854503156
 30
0.0
 11
1655.414679149353
 21
-517.1255854503158
 31
0.0
  0
LINE
  5
5A2
330
59F
100
AcDbEntity
  8
Documentation_ Floor_Pen_No__2
  6
Continuous
100
AcDbLine
 10
1655.414679149353
 20
-407.1255854503156
 30
0.0
 11
1658.414679149353
 21
-410.1255854503156
 31
0.0
  0
LINE
  5
5A3
330
59F
100
AcDbEntity
  8
Documentation_ Floor_Pen_No__2
  6
Continuous
100
AcDbLine
 10
1655.414679149353
 20
-407.1255854503156
 30
0.0
 11
1652.414679149353
 21
-410.1255854503156
 31
0.0
  0
LINE
  5
5A4
330
59F
100
AcDbEntity
  8
Documentation_ Floor_Pen_No__2
  6
Continuous
100
AcDbLine
 10
1655.414679149353
 20
-517.1255854503158
 30
0.0
 11
1652.414679149353
 21
-514.1255854503158
 31
0.0
  0
LINE
  5
5A5
330
59F
100
AcDbEntity
  8
Documentation_ Floor_Pen_No__2
  6
Continuous
100
AcDbLine
 10
1655.414679149353
 20
-517.1255854503158
 30
0.0
 11
1658.414679149353
 21
-514.1255854503158
 31
0.0
  0
ENDBLK
  5
5A6
330
59F
100
AcDbEntity
  8
0
100
AcDbBlockEnd
  0
BLOCK
  5
5A8
330
5A7
100
AcDbEntity
  8
0
100
AcDbBlockBegin
  2
PolyLine_9
 70
     0
 10
1441.839303867655
 20
-332.0937068243083
 30
0.0
  3
PolyLine_9
  1

  0
CIRCLE
  5
5A9
330
5A7
100
AcDbEntity
  8
Documentation_ Floor_Pen_No__1
  6
Continuous
100
AcDbCircle
 10
1513.236931301733
 20
-356.1255854503168
 30
0.0
 40
0.5
  0
HATCH
  5
5AA
330
5A7
100
AcDbEntity
  8
Documentation_ Floor
  6
Continuous
 62
    18
420
        0
370
     0
100
AcDbHatch
 10
0.0
 20
0.0
 30
0.0
210
0.0
220
0.0
230
1.0
  2
SOLID
 70
     1
 71
     0
 91
        1
 92
        3
 72
     0
 73
     1
 93
       16
 10
1513.736931301733
 20
-356.1255854503168
 10
1513.698871067989
 20
-355.9342437341342
 10
1513.590484692327
 20
-355.7720320597235
 10
1513.428273017916
 20
-355.6636456840612
 10
1513.236931301733
 20
-355.6255854503168
 10
1513.045589585551
 20
-355.6636456840612
 10
1512.88337791114
 20
-355.7720320597235
 10
1512.774991535478
 20
-355.9342437341342
 10
1512.736931301733
 20
-356.1255854503168
 10
1512.774991535478
 20
-356.3169271664994
 10
1512.88337791114
 20
-356.4791388409101
 10
1513.045589585551
 20
-356.5875252165724
 10
1513.236931301733
 20
-356.6255854503168
 10
1513.428273017916
 20
-356.5875252165724
 10
1513.590484692327
 20
-356.4791388409101
 10
1513.698871067989
 20
-356.3169271664994
 97
        0
 75
     0
 76
     1
 98
        0
450
        0
451
        0
460
0.0
461
0.0
452
        1
462
0.0
453
        0
470

  0
LWPOLYLINE
  5
5AB
330
5A7
100
AcDbEntity
  8
Documentation_ Floor_Pen_No__1
  6
Continuous
100
AcDbPolyline
 90
        3
 70
   128
 43
0.0
 10
1441.839303867655
 20
-332.0937068243083
 10
1513.236931301733
 20
-332.0937068243083
 10
1513.236931301733
 20
-355.6255854503168
  0
ENDBLK
  5
5AC
330
5A7
100
AcDbEntity
  8
0
100
AcDbBlockEnd
  0
BLOCK
  5
5AE
330
5AD
100
AcDbEntity
  8
0
100
AcDbBlockBegin
  2
PolyLine_10
 70
     0
 10
1487.785126304173
 20
-375.3162394533594
 30
0.0
  3
PolyLine_10
  1

  0
CIRCLE
  5
5AF
330
5AD
100
AcDbEntity
  8
Documentation_ Floor_Pen_No__1
  6
Continuous
100
AcDbCircle
 10
1506.673387530119
 20
-375.3162394533594
 30
0.0
 40
0.5
  0
HATCH
  5
5B0
330
5AD
100
AcDbEntity
  8
Documentation_ Floor
  6
Continuous
 62
    18
420
        0
370
     0
100
AcDbHatch
 10
0.0
 20
0.0
 30
0.0
210
0.0
220
0.0
230
1.0
  2
SOLID
 70
     1
 71
     0
 91
        1
 92
        3
 72
     0
 73
     1
 93
       16
 10
1507.173387530119
 20
-375.3162394533594
 10
1507.135327296375
 20
-375.1248977371768
 10
1507.026940920712
 20
-374.9626860627661
 10
1506.864729246301
 20
-374.8542996871038
 10
1506.673387530119
 20
-374.8162394533594
 10
1506.482045813936
 20
-374.8542996871038
 10
1506.319834139526
 20
-374.9626860627661
 10
1506.211447763863
 20
-375.1248977371768
 10
1506.173387530119
 20
-375.3162394533594
 10
1506.211447763863
 20
-375.507581169542
 10
1506.319834139526
 20
-375.6697928439527
 10
1506.482045813936
 20
-375.778179219615
 10
1506.673387530119
 20
-375.8162394533594
 10
1506.864729246301
 20
-375.778179219615
 10
1507.026940920712
 20
-375.6697928439527
 10
1507.135327296375
 20
-375.507581169542
 97
        0
 75
     0
 76
     1
 98
        0
450
        0
451
        0
460
0.0
461
0.0
452
        1
462
0.0
453
        0
470

  0
LWPOLYLINE
  5
5B1
330
5AD
100
AcDbEntity
  8
Documentation_ Floor_Pen_No__1
  6
Continuous
100
AcDbPolyline
 90
        2
 70
   128
 43
0.0
 10
1487.785126304173
 20
-375.3162394533594
 10
1506.173387530119
 20
-375.3162394533594
  0
ENDBLK
  5
5B2
330
5AD
100
AcDbEntity
  8
0
100
AcDbBlockEnd
  0
BLOCK
  5
5B4
330
5B3
100
AcDbEntity
  8
0
100
AcDbBlockBegin
  2
ARROWHEAD_2
 70
     0
 10
0.0
 20
0.0
 30
0.0
  3
ARROWHEAD_2
  1

  0
LINE
  5
5B5
330
5B3
100
AcDbEntity
  8
0
  6
Continuous
 62
     0
370
     0
100
AcDbLine
 10
-0.3781315
 20
-0.6550000000000001
 30
0.0
 11
0.3781315
 21
0.6550000000000001
 31
0.0
  0
LINE
  5
5B6
330
5B3
100
AcDbEntity
  8
0
  6
Continuous
 62
     0
370
     0
100
AcDbLine
 10
0.0
 20
0.0
 30
0.0
 11
-1.0
 21
0.0
 31
0.0
  0
ENDBLK
  5
5B7
330
5B3
100
AcDbEntity
  8
0
100
AcDbBlockEnd
  0
BLOCK
  5
5B9
330
5B8
100
AcDbEntity
  8
0
100
AcDbBlockBegin
  2
PolyLine_11
 70
     0
 10
1851.113199338186
 20
-312.944815239628
 30
0.0
  3
PolyLine_11
  1

  0
CIRCLE
  5
5BA
330
5B8
100
AcDbEntity
  8
Documentation_ Floor_Pen_No__1
  6
Continuous
100
AcDbCircle
 10
1882.143914209384
 20
-312.944815239628
 30
0.0
 40
0.5
  0
HATCH
  5
5BB
330
5B8
100
AcDbEntity
  8
Documentation_ Floor
  6
Continuous
 62
    18
420
        0
370
     0
100
AcDbHatch
 10
0.0
 20
0.0
 30
0.0
210
0.0
220
0.0
230
1.0
  2
SOLID
 70
     1
 71
     0
 91
        1
 92
        3
 72
     0
 73
     1
 93
       16
 10
1882.643914209385
 20
-312.944815239628
 10
1882.60585397564
 20
-312.7534735234454
 10
1882.497467599978
 20
-312.5912618490347
 10
1882.335255925567
 20
-312.4828754733723
 10
1882.143914209384
 20
-312.444815239628
 10
1881.952572493202
 20
-312.4828754733723
 10
1881.790360818791
 20
-312.5912618490347
 10
1881.681974443129
 20
-312.7534735234454
 10
1881.643914209385
 20
-312.944815239628
 10
1881.681974443129
 20
-313.1361569558105
 10
1881.790360818791
 20
-313.2983686302213
 10
1881.952572493202
 20
-313.4067550058836
 10
1882.143914209384
 20
-313.444815239628
 10
1882.335255925567
 20
-313.4067550058836
 10
1882.497467599978
 20
-313.2983686302213
 10
1882.60585397564
 20
-313.1361569558105
 97
        0
 75
     0
 76
     1
 98
        0
450
        0
451
        0
460
0.0
461
0.0
452
        1
462
0.0
453
        0
470

  0
LWPOLYLINE
  5
5BC
330
5B8
100
AcDbEntity
  8
Documentation_ Floor_Pen_No__1
  6
Continuous
100
AcDbPolyline
 90
        2
 70
   128
 43
0.0
 10
1851.113199338186
 20
-312.944815239628
 10
1881.643914209385
 20
-312.944815239628
  0
ENDBLK
  5
5BD
330
5B8
100
AcDbEntity
  8
0
100
AcDbBlockEnd
  0
BLOCK
  5
5BF
330
5BE
100
AcDbEntity
  8
0
100
AcDbBlockBegin
  2
PolyLine_12
 70
     0
 10
1866.797201963303
 20
-329.3033986228138
 30
0.0
  3
PolyLine_12
  1

  0
CIRCLE
  5
5C0
330
5BE
100
AcDbEntity
  8
Documentation_ Floor_Pen_No__1
  6
Continuous
100
AcDbCircle
 10
1910.307660858787
 20
-329.3033986228138
 30
0.0
 40
0.5
  0
HATCH
  5
5C1
330
5BE
100
AcDbEntity
  8
Documentation_ Floor
  6
Continuous
 62
    18
420
        0
370
     0
100
AcDbHatch
 10
0.0
 20
0.0
 30
0.0
210
0.0
220
0.0
230
1.0
  2
SOLID
 70
     1
 71
     0
 91
        1
 92
        3
 72
     0
 73
     1
 93
       16
 10
1910.807660858787
 20
-329.3033986228138
 10
1910.769600625043
 20
-329.1120569066312
 10
1910.661214249381
 20
-328.9498452322205
 10
1910.49900257497
 20
-328.8414588565581
 10
1910.307660858787
 20
-328.8033986228137
 10
1910.116319142605
 20
-328.8414588565581
 10
1909.954107468194
 20
-328.9498452322205
 10
1909.845721092532
 20
-329.1120569066312
 10
1909.807660858788
 20
-329.3033986228138
 10
1909.845721092532
 20
-329.4947403389963
 10
1909.954107468194
 20
-329.6569520134071
 10
1910.116319142605
 20
-329.7653383890694
 10
1910.307660858787
 20
-329.8033986228138
 10
1910.49900257497
 20
-329.7653383890694
 10
1910.661214249381
 20
-329.6569520134071
 10
1910.769600625043
 20
-329.4947403389963
 97
        0
 75
     0
 76
     1
 98
        0
450
        0
451
        0
460
0.0
461
0.0
452
        1
462
0.0
453
        0
470

  0
LWPOLYLINE
  5
5C2
330
5BE
100
AcDbEntity
  8
Documentation_ Floor_Pen_No__1
  6
Continuous
100
AcDbPolyline
 90
        2
 70
   128
 43
0.0
 10
1866.797201963303
 20
-329.3033986228138
 10
1909.807660858788
 20
-329.3033986228138
  0
ENDBLK
  5
5C3
330
5BE
100
AcDbEntity
  8
0
100
AcDbBlockEnd
  0
ENDSEC
  0
SECTION
  2
ENTITIES
  0
HATCH
  5
3F
330
1F
100
AcDbEntity
  8
0_Pen_No__153
  6
Continuous
100
AcDbHatch
 10
0.0
 20
0.0
 30
0.0
210
0.0
220
0.0
230
1.0
  2
LINES___VERTICAL
 70
     0
 71
     0
 91
        1
 92
        3
 72
     0
 73
     1
 93
        4
 10
1096.137033051641
 20
-637.1255854503196
 10
1186.137033051644
 20
-637.1255854503179
 10
1186.137033051644
 20
-957.1255854503176
 10
1096.137033051612
 20
-957.1255854503176
 97
        0
 75
     0
 76
     2
 52
0.0
 41
1.0
 77
     0
 78
     1
 53
90.00000000000003
 43
0.0
 44
0.0
 45
-10.0
 46
0.0
 79
     0
 98
        0
  0
HATCH
  5
41
330
1F
100
AcDbEntity
  8
Fills_ Pattern_Pen_No__151
  6
Continuous
100
AcDbHatch
 10
0.0
 20
0.0
 30
0.0
210
0.0
220
0.0
230
1.0
  2
SOLID
 70
     1
 71
     1
 91
        1
 92
        3
 72
     0
 73
     1
 93
        4
 10
1190.137033051642
 20
-662.1255854503183
 10
1190.137033051642
 20
-752.1255854503181
 10
1235.137033051644
 20
-752.1255854503181
 10
1235.137033051644
 20
-662.1255854503183
 97
        1
330
44
 75
     0
 76
     1
 98
        0
450
        0
451
        0
460
0.0
461
0.0
452
        1
462
0.0
453
        0
470

  0
LWPOLYLINE
  5
44
102
{ACAD_REACTORS
330
41
102
}
330
1F
100
AcDbEntity
  8
Fills_ Pattern_Pen_No__4
  6
Continuous
100
AcDbPolyline
 90
        4
 70
   129
 43
0.0
 10
1190.137033051642
 20
-662.1255854503183
 10
1190.137033051642
 20
-752.1255854503181
 10
1235.137033051644
 20
-752.1255854503181
 10
1235.137033051644
 20
-662.1255854503183
  0
HATCH
  5
45
330
1F
100
AcDbEntity
  8
Fills_ Pattern_Pen_No__153
  6
Continuous
100
AcDbHatch
 10
0.0
 20
0.0
 30
0.0
210
0.0
220
0.0
230
1.0
  2
LINES___HORIZONTAL
 70
     0
 71
     0
 91
        1
 92
        3
 72
     0
 73
     1
 93
        4
 10
1235.137033051644
 20
-662.1255854503183
 10
1362.500000000048
 20
-662.1255854503183
 10
1362.500000000048
 20
-752.1255854503181
 10
1235.137033051644
 20
-752.1255854503181
 97
        0
 75
     0
 76
     2
 52
0.0
 41
1.0
 77
     0
 78
     1
 53
0.0
 43
0.0
 44
0.0
 45
0.0
 46
10.0
 79
     0
 98
        0
  0
HATCH
  5
47
330
1F
100
AcDbEntity
  8
Fills_ Pattern_Pen_No__154
  6
Continuous
100
AcDbHatch
 10
0.0
 20
0.0
 30
0.0
210
0.0
220
0.0
230
1.0
  2
CUT_STONE
 70
     0
 71
     0
 91
        1
 92
        3
 72
     0
 73
     1
 93
        4
 10
1084.35588718114
 20
-637.1255854503179
 10
1094.355887181131
 20
-637.1255854503179
 10
1094.355887181131
 20
-957.1255854503176
 10
1084.35588718114
 20
-957.1255854503176
 97
        0
 75
     0
 76
     2
 52
0.0
 41
1.0
 77
     0
 78
     2
 53
44.99999999999999
 43
0.0
 44
7.0
 45
-2.227386360737624
 46
2.227386360737624
 79
     4
 49
0.0
 49
-2.099999999999999
 49
0.0
 49
-3.15
 53
110.0
 43
7.0
 44
7.0
 45
2.96003175547561
 46
1.077363451475857
 79
     4
 49
0.0
 49
-1.539999999999999
 49
0.0
 49
-2.659999999999999
 98
        0
  0
HATCH
  5
49
330
1F
100
AcDbEntity
  8
Documentation_ Finishes_Pen_No__151
  6
Continuous
100
AcDbHatch
 10
0.0
 20
0.0
 30
0.0
210
0.0
220
0.0
230
1.0
  2
SOLID
 70
     1
 71
     1
 91
        1
 92
        3
 72
     0
 73
     1
 93
        4
 10
1190.137033051642
 20
-760.6255854503179
 10
1209.137033051647
 20
-760.6255854503179
 10
1209.137033051647
 20
-805.6255854503177
 10
1190.137033051642
 20
-805.6255854503177
 97
        1
330
4C
 75
     0
 76
     1
 98
        0
450
        0
451
        0
460
0.0
461
0.0
452
        1
462
0.0
453
        0
470

  0
LWPOLYLINE
  5
4C
102
{ACAD_REACTORS
330
49
102
}
330
1F
100
AcDbEntity
  8
Documentation_ Finishes_Pen_No__4
  6
Continuous
100
AcDbPolyline
 90
        4
 70
   129
 43
0.0
 10
1190.137033051642
 20
-760.6255854503179
 10
1209.137033051647
 20
-760.6255854503179
 10
1209.137033051647
 20
-805.6255854503177
 10
1190.137033051642
 20
-805.6255854503177
  0
INSERT
  5
DF
330
1F
100
AcDbEntity
  8
Fills_ Pattern_Pen_No__153
  6
Continuous
100
AcDbBlockReference
  2
Fill_1
 10
0.0
 20
0.0
 30
0.0
  0
HATCH
  5
E0
330
1F
100
AcDbEntity
  8
Fills_ Pattern_Pen_No__153
  6
Continuous
100
AcDbHatch
 10
0.0
 20
0.0
 30
0.0
210
0.0
220
0.0
230
1.0
  2
SOLID
 70
     1
 71
     1
 91
        1
 92
        3
 72
     0
 73
     1
 93
       18
 10
1230.137033051647
 20
-762.1255854503246
 10
1210.137033051648
 20
-762.1255854503246
 10
1213.137033051647
 20
-764.1255854503164
 10
1213.137033051647
 20
-768.1255854503141
 10
1210.137033051648
 20
-770.1255854503147
 10
1210.137033051648
 20
-795.125585450317
 10
1213.137033051647
 20
-797.1255854503176
 10
1213.137033051647
 20
-801.1255854503154
 10
1210.137033051648
 20
-803.1255854503161
 10
1210.137033051648
 20
-817.6255854503178
 10
1220.137033051647
 20
-820.1255854503173
 10
1220.137033051647
 20
-831.1255854503166
 10
1223.137033051647
 20
-831.1255854503166
 10
1223.137033051647
 20
-837.1255854503168
 10
1220.137033051647
 20
-837.1255854503168
 10
1220.137033051647
 20
-847.1255854503183
 10
1228.137033051644
 20
-847.1255854503201
 10
1230.137033051647
 20
-845.1255854503159
 97
        1
330
E1
 75
     0
 76
     1
 98
        0
450
        0
451
        0
460
0.0
461
0.0
452
        1
462
0.0
453
        0
470

  0
LWPOLYLINE
  5
E1
102
{ACAD_REACTORS
330
E0
102
}
330
1F
100
AcDbEntity
  8
Fills_ Pattern_Pen_No__4
  6
Continuous
100
AcDbPolyline
 90
       18
 70
   129
 43
0.0
 10
1230.137033051647
 20
-762.1255854503246
 10
1210.137033051648
 20
-762.1255854503246
 10
1213.137033051647
 20
-764.1255854503164
 10
1213.137033051647
 20
-768.1255854503141
 10
1210.137033051648
 20
-770.1255854503147
 10
1210.137033051648
 20
-795.125585450317
 10
1213.137033051647
 20
-797.1255854503176
 10
1213.137033051647
 20
-801.1255854503154
 10
1210.137033051648
 20
-803.1255854503161
 10
1210.137033051648
 20
-817.6255854503178
 10
1220.137033051647
 20
-820.1255854503173
 10
1220.137033051647
 20
-831.1255854503166
 10
1223.137033051647
 20
-831.1255854503166
 10
1223.137033051647
 20
-837.1255854503168
 10
1220.137033051647
 20
-837.1255854503168
 10
1220.137033051647
 20
-847.1255854503183
 10
1228.137033051644
 20
-847.1255854503201
 10
1230.137033051647
 20
-845.1255854503159
  0
HATCH
  5
E2
330
1F
100
AcDbEntity
  8
Fills_ Pattern_Pen_No__153
  6
Continuous
100
AcDbHatch
 10
0.0
 20
0.0
 30
0.0
210
0.0
220
0.0
230
1.0
  2
SOLID
 70
     1
 71
     1
 91
        1
 92
        3
 72
     1
 73
     1
 93
       25
 10
1230.137033051647
 20
-872.1255854503239
 42
-0.192582403567185
 10
1220.137033051647
 20
-847.1255854503164
 42
0.0
 10
1220.137033051647
 20
-837.1255854503168
 42
0.0
 10
1217.137033051647
 20
-837.1255854503168
 42
0.0
 10
1217.137033051647
 20
-831.1255854503166
 42
0.0
 10
1220.137033051647
 20
-831.1255854503166
 42
0.0
 10
1220.137033051647
 20
-822.125585450318
 42
0.0
 10
1210.137033051648
 20
-822.125585450318
 42
0.0
 10
1210.137033051648
 20
-872.125585450315
 42
0.0
 10
1213.137033051647
 20
-874.1255854503156
 42
0.0
 10
1213.137033051647
 20
-878.1255854503132
 42
0.0
 10
1210.137033051648
 20
-880.1255854503139
 42
0.0
 10
1210.137033051648
 20
-905.1255854503162
 42
0.0
 10
1213.137033051647
 20
-907.1255854503169
 42
0.0
 10
1213.137033051647
 20
-911.1255854503145
 42
0.0
 10
1210.137033051648
 20
-913.1255854503152
 42
0.0
 10
1210.137033051648
 20
-927.6255854503171
 42
0.0
 10
1220.137033051647
 20
-930.1255854503166
 42
0.0
 10
1220.137033051647
 20
-941.1255854503156
 42
0.0
 10
1223.137033051647
 20
-941.1255854503156
 42
0.0
 10
1223.137033051647
 20
-947.1255854503159
 42
0.0
 10
1220.137033051647
 20
-947.1255854503159
 42
0.0
 10
1220.137033051647
 20
-957.1255854503176
 42
0.0
 10
1228.137033051644
 20
-957.1255854503194
 42
0.0
 10
1230.137033051647
 20
-955.1255854503152
 42
0.0
 97
        1
330
E3
 75
     0
 76
     1
 98
        0
450
        0
451
        0
460
0.0
461
0.0
452
        1
462
0.0
453
        0
470

  0
LWPOLYLINE
  5
E3
102
{ACAD_REACTORS
330
E2
102
}
330
1F
100
AcDbEntity
  8
Fills_ Pattern_Pen_No__4
  6
Continuous
100
AcDbPolyline
 90
       25
 70
   129
 43
0.0
 10
1230.137033051647
 20
-872.1255854503239
 42
-0.192582403567185
 10
1220.137033051647
 20
-847.1255854503164
 10
1220.137033051647
 20
-837.1255854503168
 10
1217.137033051647
 20
-837.1255854503168
 10
1217.137033051647
 20
-831.1255854503166
 10
1220.137033051647
 20
-831.1255854503166
 10
1220.137033051647
 20
-822.125585450318
 10
1210.137033051648
 20
-822.125585450318
 10
1210.137033051648
 20
-872.125585450315
 10
1213.137033051647
 20
-874.1255854503156
 10
1213.137033051647
 20
-878.1255854503132
 10
1210.137033051648
 20
-880.1255854503139
 10
1210.137033051648
 20
-905.1255854503162
 10
1213.137033051647
 20
-907.1255854503169
 10
1213.137033051647
 20
-911.1255854503145
 10
1210.137033051648
 20
-913.1255854503152
 10
1210.137033051648
 20
-927.6255854503171
 10
1220.137033051647
 20
-930.1255854503166
 10
1220.137033051647
 20
-941.1255854503156
 10
1223.137033051647
 20
-941.1255854503156
 10
1223.137033051647
 20
-947.1255854503159
 10
1220.137033051647
 20
-947.1255854503159
 10
1220.137033051647
 20
-957.1255854503176
 10
1228.137033051644
 20
-957.1255854503194
 10
1230.137033051647
 20
-955.1255854503152
  0
HATCH
  5
E4
330
1F
100
AcDbEntity
  8
Fills_ Pattern_Pen_No__153
  6
Continuous
100
AcDbHatch
 10
0.0
 20
0.0
 30
0.0
210
0.0
220
0.0
230
1.0
  2
SOLID
 70
     1
 71
     0
 91
        1
 92
        3
 72
     0
 73
     1
 93
        8
 10
1220.137033051647
 20
-957.1255854503156
 10
1220.137033051647
 20
-947.1255854503159
 10
1217.137033051647
 20
-947.1255854503159
 10
1217.137033051647
 20
-941.1255854503156
 10
1220.137033051647
 20
-941.1255854503156
 10
1220.137033051647
 20
-932.1255854503172
 10
1210.137033051648
 20
-932.1255854503172
 10
1210.137033051648
 20
-957.1255854503176
 97
        0
 75
     0
 76
     1
 98
        0
450
        0
451
        0
460
0.0
461
0.0
452
        1
462
0.0
453
        0
470

  0
LINE
  5
E5
330
1F
100
AcDbEntity
  8
Documentation_ Floor_Pen_No__2
  6
Continuous
100
AcDbLine
 10
1190.137033051642
 20
-662.1255854503183
 30
0.0
 11
1362.500000000048
 21
-662.1255854503183
 31
0.0
  0
LINE
  5
E7
330
1F
100
AcDbEntity
  8
Documentation_ Floor_Pen_No__2
  6
Continuous
100
AcDbLine
 10
1190.137033051642
 20
-758.6255854503171
 30
0.0
 11
1362.500000000048
 21
-758.6255854503171
 31
0.0
  0
LINE
  5
E8
330
1F
100
AcDbEntity
  8
Documentation_ Floor_Pen_No__2
  6
Continuous
100
AcDbLine
 10
1190.137033051642
 20
-754.125585450317
 30
0.0
 11
1362.500000000048
 21
-754.125585450317
 31
0.0
  0
LINE
  5
E9
330
1F
100
AcDbEntity
  8
0_Pen_No__1
  6
Continuous
100
AcDbLine
 10
1190.137033051642
 20
-662.1255854503183
 30
0.0
 11
1235.137033051644
 21
-752.1255854503181
 31
0.0
  0
LINE
  5
EB
330
1F
100
AcDbEntity
  8
0_Pen_No__1
  6
Continuous
100
AcDbLine
 10
1235.137033051644
 20
-662.1255854503183
 30
0.0
 11
1190.137033051642
 21
-752.1255854503181
 31
0.0
  0
LINE
  5
EC
330
1F
100
AcDbEntity
  8
Documentation_ Floor_Pen_No__2
  6
Continuous
100
AcDbLine
 10
1190.137033051642
 20
-752.1255854503181
 30
0.0
 11
1362.500000000048
 21
-752.1255854503181
 31
0.0
  0
LINE
  5
ED
330
1F
100
AcDbEntity
  8
0_Pen_No__2
  6
Continuous
100
AcDbLine
 10
1209.137033051647
 20
-957.1255854503176
 30
0.0
 11
1209.137033051647
 21
-760.6255854503179
 31
0.0
  0
LINE
  5
EF
330
1F
100
AcDbEntity
  8
Documentation_ Floor_Pen_No__2
  6
Continuous
100
AcDbLine
 10
1190.137033051642
 20
-760.6255854503179
 30
0.0
 11
1209.137033051647
 21
-760.6255854503179
 31
0.0
  0
LINE
  5
F1
330
1F
100
AcDbEntity
  8
0_Pen_No__2
  6
Building Wrap
100
AcDbLine
 10
1188.13703305164
 20
-637.1255854503179
 30
0.0
 11
1188.13703305164
 21
-957.1255854503176
 31
0.0
  0
LINE
  5
F2
330
1F
100
AcDbEntity
  8
0_Pen_No__2
  6
Continuous
100
AcDbLine
 10
1096.137033051612
 20
-957.1255854503176
 30
0.0
 11
1096.137033051612
 21
-637.1255854503179
 31
0.0
  0
LINE
  5
F3
330
1F
100
AcDbEntity
  8
0_Pen_No__2
  6
Continuous
100
AcDbLine
 10
1190.137033051642
 20
-957.1255854503176
 30
0.0
 11
1190.137033051642
 21
-760.6255854503179
 31
0.0
  0
LINE
  5
F4
330
1F
100
AcDbEntity
  8
0_Pen_No__2
  6
Continuous
100
AcDbLine
 10
1186.137033051644
 20
-957.1255854503176
 30
0.0
 11
1186.137033051644
 21
-637.1255854503179
 31
0.0
  0
LINE
  5
F5
330
1F
100
AcDbEntity
  8
Documentation_ Floor_Pen_No__2
  6
Continuous
100
AcDbLine
 10
1190.137033051642
 20
-754.125585450317
 30
0.0
 11
1190.137033051642
 21
-758.6255854503171
 31
0.0
  0
LINE
  5
F6
330
1F
100
AcDbEntity
  8
Documentation_ Floor_Pen_No__2
  6
Continuous
100
AcDbLine
 10
1084.35588718114
 20
-637.1255854503179
 30
0.0
 11
1084.35588718114
 21
-957.1255854503176
 31
0.0
  0
LINE
  5
F7
330
1F
100
AcDbEntity
  8
Documentation_ Floor_Pen_No__2
  6
Continuous
100
AcDbLine
 10
1094.355887181131
 20
-637.1255854503179
 30
0.0
 11
1094.355887181131
 21
-957.1255854503176
 31
0.0
  0
LINE
  5
F8
330
1F
100
AcDbEntity
  8
Documentation_ Floor_Pen_No__1
  6
Continuous
100
AcDbLine
 10
1190.137033051642
 20
-760.6255854503179
 30
0.0
 11
1209.137033051647
 21
-805.6255854503177
 31
0.0
  0
LINE
  5
FA
330
1F
100
AcDbEntity
  8
Documentation_ Floor_Pen_No__1
  6
Continuous
100
AcDbLine
 10
1190.137033051642
 20
-805.6255854503177
 30
0.0
 11
1209.137033051647
 21
-760.6255854503179
 31
0.0
  0
LINE
  5
FB
330
1F
100
AcDbEntity
  8
Documentation_ Floor_Pen_No__4
  6
Continuous
100
AcDbLine
 10
1215.587033051648
 20
-836.7488253921029
 30
0.0
 11
1215.587033051648
 21
-837.2488253921035
 31
0.0
  0
LINE
  5
FD
330
1F
100
AcDbEntity
  8
False Bits_ Plan_Pen_No__1
  6
Continuous
100
AcDbLine
 10
1168.240573387359
 20
-811.7646252319467
 30
0.0
 11
1168.480251679914
 21
-809.0250898121926
 31
0.0
  0
LINE
  5
FF
330
1F
100
AcDbEntity
  8
False Bits_ Plan_Pen_No__1
  6
Continuous
100
AcDbLine
 10
1166.746281340222
 20
-811.6338916178269
 30
0.0
 11
1166.985959632777
 21
-808.8943561980725
 31
0.0
  0
LINE
  5
100
330
1F
100
AcDbEntity
  8
False Bits_ Plan_Pen_No__1
  6
Continuous
100
AcDbLine
 10
1165.251989293085
 20
-811.5031580037053
 30
0.0
 11
1165.49166758564
 21
-808.763622583951
 31
0.0
  0
LINE
  5
101
330
1F
100
AcDbEntity
  8
False Bits_ Plan_Pen_No__1
  6
Continuous
100
AcDbLine
 10
1169.734865434497
 20
-811.89535884607
 30
0.0
 11
1169.974543727053
 21
-809.155823426316
 31
0.0
  0
LINE
  5
102
330
1F
100
AcDbEntity
  8
False Bits_ Plan_Pen_No__1
  6
Continuous
100
AcDbLine
 10
1162.263405198807
 20
-811.2416907754621
 30
0.0
 11
1162.503083491364
 21
-808.5021553557082
 31
0.0
  0
LINE
  5
103
330
1F
100
AcDbEntity
  8
False Bits_ Plan_Pen_No__1
  6
Continuous
100
AcDbLine
 10
1171.229157481634
 20
-812.0260924601895
 30
0.0
 11
1171.468835774192
 21
-809.2865570404356
 31
0.0
  0
LINE
  5
104
330
1F
100
AcDbEntity
  8
False Bits_ Plan_Pen_No__1
  6
Continuous
100
AcDbLine
 10
1160.76911315167
 20
-811.1109571613406
 30
0.0
 11
1161.008791444227
 21
-808.3714217415861
 31
0.0
  0
LINE
  5
105
330
1F
100
AcDbEntity
  8
False Bits_ Plan_Pen_No__2
  6
Continuous
100
AcDbLine
 10
1155.42433334572
 20
-809.2630972426542
 30
0.0
 11
1158.037638498503
 21
-807.9107155737258
 31
0.0
  0
LINE
  5
107
330
1F
100
AcDbEntity
  8
False Bits_ Plan_Pen_No__1
  6
Continuous
100
AcDbLine
 10
1157.780529057395
 20
-810.8494899330974
 30
0.0
 11
1158.020207349951
 21
-808.1099545133429
 31
0.0
  0
LINE
  5
108
330
1F
100
AcDbEntity
  8
False Bits_ Plan_Pen_No__1
  6
Continuous
100
AcDbLine
 10
1159.274821104532
 20
-810.9802235472191
 30
0.0
 11
1159.514499397089
 21
-808.2406881274646
 31
0.0
  0
LINE
  5
109
330
1F
100
AcDbEntity
  8
False Bits_ Plan_Pen_No__1
  6
Continuous
100
AcDbLine
 10
1180.194909764461
 20
-812.8104941449192
 30
0.0
 11
1180.434588057016
 21
-810.0709587251651
 31
0.0
  0
LINE
  5
10A
330
1F
100
AcDbEntity
  8
False Bits_ Plan_Pen_No__1
  6
Continuous
100
AcDbLine
 10
1181.689201811599
 20
-812.9412277590388
 30
0.0
 11
1181.928880104154
 21
-810.2016923392865
 31
0.0
  0
LINE
  5
10B
330
1F
100
AcDbEntity
  8
False Bits_ Plan_Pen_No__2
  6
Continuous
100
AcDbLine
 10
1230.001665407774
 20
-817.3687845982213
 30
0.0
 11
1157.763097908843
 21
-811.0487288727146
 31
0.0
  0
LINE
  5
10C
330
1F
100
AcDbEntity
  8
False Bits_ Plan_Pen_No__1
  6
Continuous
100
AcDbLine
 10
1172.723449528771
 20
-812.1568260743096
 30
0.0
 11
1172.963127821328
 21
-809.4172906545571
 31
0.0
  0
LINE
  5
10D
330
1F
100
AcDbEntity
  8
False Bits_ Plan_Pen_No__1
  6
Continuous
100
AcDbLine
 10
1174.21774157591
 20
-812.2875596884314
 30
0.0
 11
1174.457419868465
 21
-809.5480242686804
 31
0.0
  0
LINE
  5
10E
330
1F
100
AcDbEntity
  8
False Bits_ Plan_Pen_No__1
  6
Continuous
100
AcDbLine
 10
1175.712033623048
 20
-812.4182933025547
 30
0.0
 11
1175.951711915604
 21
-809.6787578828003
 31
0.0
  0
LINE
  5
10F
330
1F
100
AcDbEntity
  8
False Bits_ Plan_Pen_No__1
  6
Continuous
100
AcDbLine
 10
1178.700617717322
 20
-812.6797605307958
 30
0.0
 11
1178.940296009878
 21
-809.9402251110435
 31
0.0
  0
LINE
  5
110
330
1F
100
AcDbEntity
  8
False Bits_ Plan_Pen_No__1
  6
Continuous
100
AcDbLine
 10
1184.677785905873
 20
-813.2026949872821
 30
0.0
 11
1184.917464198429
 21
-810.4631595675302
 31
0.0
  0
LINE
  5
111
330
1F
100
AcDbEntity
  8
False Bits_ Plan_Pen_No__1
  6
Continuous
100
AcDbLine
 10
1177.206325670183
 20
-812.5490269166743
 30
0.0
 11
1177.446003962743
 21
-809.809491496922
 31
0.0
  0
LINE
  5
112
330
1F
100
AcDbEntity
  8
False Bits_ Plan_Pen_No__1
  6
Continuous
100
AcDbLine
 10
1183.183493858734
 20
-813.0719613731608
 30
0.0
 11
1183.42317215129
 21
-810.3324259534083
 31
0.0
  0
LINE
  5
113
330
1F
100
AcDbEntity
  8
False Bits_ Plan_Pen_No__2
  6
Continuous
100
AcDbLine
 10
1230.27620599743
 20
-814.2307712992327
 30
0.0
 11
1158.037638498501
 21
-807.9107155737258
 31
0.0
  0
LINE
  5
114
330
1F
100
AcDbEntity
  8
False Bits_ Plan_Pen_No__1
  6
Continuous
100
AcDbLine
 10
1195.137830235837
 20
-814.1178302861332
 30
0.0
 11
1195.377508528393
 21
-811.3782948663809
 31
0.0
  0
LINE
  5
115
330
1F
100
AcDbEntity
  8
False Bits_ Plan_Pen_No__1
  6
Continuous
100
AcDbLine
 10
1199.62070637725
 20
-814.5100311284982
 30
0.0
 11
1199.860384669805
 21
-811.770495708744
 31
0.0
  0
LINE
  5
116
330
1F
100
AcDbEntity
  8
False Bits_ Plan_Pen_No__1
  6
Continuous
100
AcDbLine
 10
1193.643538188698
 20
-813.9870966720115
 30
0.0
 11
1193.883216481256
 21
-811.2475612522576
 31
0.0
  0
LINE
  5
117
330
1F
100
AcDbEntity
  8
False Bits_ Plan_Pen_No__1
  6
Continuous
100
AcDbLine
 10
1192.14924614156
 20
-813.85636305789
 30
0.0
 11
1192.388924434119
 21
-811.1168276381377
 31
0.0
  0
LINE
  5
118
330
1F
100
AcDbEntity
  8
Documentation_ Floor_Pen_No__2
  6
Continuous
100
AcDbLine
 10
1231.63322774974
 20
-815.9305115628502
 30
0.0
 11
1230.36336401942
 21
-818.9714071721095
 31
0.0
  0
LINE
  5
119
330
1F
100
AcDbEntity
  8
Documentation_ Floor_Pen_No__2
  6
Continuous
100
AcDbLine
 10
1230.910702083876
 20
-812.7153044680961
 30
0.0
 11
1231.63322774974
 21
-815.9305115628502
 31
0.0
  0
LINE
  5
11A
330
1F
100
AcDbEntity
  8
False Bits_ Plan_Pen_No__1
  6
Continuous
100
AcDbLine
 10
1198.126414330111
 20
-814.3792975143764
 30
0.0
 11
1198.36609262267
 21
-811.6397620946225
 31
0.0
  0
LINE
  5
11B
330
1F
100
AcDbEntity
  8
False Bits_ Plan_Pen_No__2
  6
Continuous
100
AcDbLine
 10
1230.36336401942
 20
-818.9714071721095
 30
0.0
 11
1230.910702083876
 21
-812.7153044680961
 31
0.0
  0
LINE
  5
11C
330
1F
100
AcDbEntity
  8
False Bits_ Plan_Pen_No__2
  6
Continuous
100
AcDbLine
 10
1230.36336401942
 20
-818.9714071721095
 30
0.0
 11
1229.865266670374
 21
-818.9278293007356
 31
0.0
  0
LINE
  5
11D
330
1F
100
AcDbEntity
  8
False Bits_ Plan_Pen_No__1
  6
Continuous
100
AcDbLine
 10
1202.609290471523
 20
-814.7714983567396
 30
0.0
 11
1202.848968764081
 21
-812.0319629369852
 31
0.0
  0
LINE
  5
11E
330
1F
100
AcDbEntity
  8
False Bits_ Plan_Pen_No__1
  6
Continuous
100
AcDbLine
 10
1208.586458660074
 20
-815.294432813226
 30
0.0
 11
1208.82613695263
 21
-812.5548973934714
 31
0.0
  0
LINE
  5
11F
330
1F
100
AcDbEntity
  8
False Bits_ Plan_Pen_No__1
  6
Continuous
100
AcDbLine
 10
1204.103582518662
 20
-814.902231970861
 30
0.0
 11
1204.343260811218
 21
-812.1626965511088
 31
0.0
  0
LINE
  5
120
330
1F
100
AcDbEntity
  8
False Bits_ Plan_Pen_No__1
  6
Continuous
100
AcDbLine
 10
1205.597874565801
 20
-815.0329655849828
 30
0.0
 11
1205.837552858357
 21
-812.2934301652307
 31
0.0
  0
LINE
  5
121
330
1F
100
AcDbEntity
  8
False Bits_ Plan_Pen_No__1
  6
Continuous
100
AcDbLine
 10
1207.092166612935
 20
-815.1636991991043
 30
0.0
 11
1207.331844905495
 21
-812.4241637793504
 31
0.0
  0
LINE
  5
122
330
1F
100
AcDbEntity
  8
Documentation_ Floor_Pen_No__2
  6
Continuous
100
AcDbLine
 10
1231.63322774974
 20
-815.9305115628502
 30
0.0
 11
1230.637033051648
 21
-815.8433558201025
 31
0.0
  0
LINE
  5
123
330
1F
100
AcDbEntity
  8
False Bits_ Plan_Pen_No__1
  6
Continuous
100
AcDbLine
 10
1163.757697245946
 20
-811.3724243895816
 30
0.0
 11
1163.997375538503
 21
-808.6328889698297
 31
0.0
  0
LINE
  5
124
330
1F
100
AcDbEntity
  8
False Bits_ Plan_Pen_No__1
  6
Continuous
100
AcDbLine
 10
1196.632122282976
 20
-814.2485639002551
 30
0.0
 11
1196.871800575531
 21
-811.5090284805027
 31
0.0
  0
LINE
  5
125
330
1F
100
AcDbEntity
  8
False Bits_ Plan_Pen_No__1
  6
Continuous
100
AcDbLine
 10
1187.666370000147
 20
-813.4641622155257
 30
0.0
 11
1187.906048292703
 21
-810.724626795773
 31
0.0
  0
LINE
  5
126
330
1F
100
AcDbEntity
  8
False Bits_ Plan_Pen_No__1
  6
Continuous
100
AcDbLine
 10
1186.172077953012
 20
-813.3334286014036
 30
0.0
 11
1186.411756245568
 21
-810.5938931816515
 31
0.0
  0
LINE
  5
127
330
1F
100
AcDbEntity
  8
False Bits_ Plan_Pen_No__2
  6
Continuous
100
AcDbLine
 10
1229.865266670374
 20
-818.9278293007356
 30
0.0
 11
1230.41260473483
 21
-812.6717265967219
 31
0.0
  0
LINE
  5
128
330
1F
100
AcDbEntity
  8
False Bits_ Plan_Pen_No__1
  6
Continuous
100
AcDbLine
 10
1189.160662047286
 20
-813.5948958296472
 30
0.0
 11
1189.400340339841
 21
-810.8553604098927
 31
0.0
  0
LINE
  5
129
330
1F
100
AcDbEntity
  8
False Bits_ Plan_Pen_No__1
  6
Continuous
100
AcDbLine
 10
1190.654954094425
 20
-813.7256294437687
 30
0.0
 11
1190.89463238698
 21
-810.986094024016
 31
0.0
  0
LINE
  5
12A
330
1F
100
AcDbEntity
  8
False Bits_ Plan_Pen_No__2
  6
Continuous
100
AcDbLine
 10
1230.41260473483
 20
-812.6717265967219
 30
0.0
 11
1230.910702083876
 21
-812.7153044680961
 31
0.0
  0
LINE
  5
12B
330
1F
100
AcDbEntity
  8
False Bits_ Plan_Pen_No__1
  6
Continuous
100
AcDbLine
 10
1201.114998424385
 20
-814.6407647426181
 30
0.0
 11
1201.354676716944
 21
-811.9012293228658
 31
0.0
  0
LINE
  5
12C
330
1F
100
AcDbEntity
  8
False Bits_ Plan_Pen_No__2
  6
Continuous
100
AcDbLine
 10
1155.42433334572
 20
-809.2630972426542
 30
0.0
 11
1157.763097908846
 21
-811.0487288727163
 31
0.0
  0
LINE
  5
12D
330
1F
100
AcDbEntity
  8
False Bits_ Plan_Pen_No__1
  6
Continuous
100
AcDbLine
 10
1168.238670736404
 20
-921.8082031033201
 30
0.0
 11
1168.47834902896
 21
-919.0686676835662
 31
0.0
  0
LINE
  5
12E
330
1F
100
AcDbEntity
  8
False Bits_ Plan_Pen_No__1
  6
Continuous
100
AcDbLine
 10
1166.744378689267
 20
-921.6774694892004
 30
0.0
 11
1166.984056981823
 21
-918.9379340694461
 31
0.0
  0
LINE
  5
12F
330
1F
100
AcDbEntity
  8
False Bits_ Plan_Pen_No__1
  6
Continuous
100
AcDbLine
 10
1165.250086642131
 20
-921.5467358750789
 30
0.0
 11
1165.489764934686
 21
-918.8072004553246
 31
0.0
  0
LINE
  5
130
330
1F
100
AcDbEntity
  8
False Bits_ Plan_Pen_No__1
  6
Continuous
100
AcDbLine
 10
1169.732962783543
 20
-921.9389367174436
 30
0.0
 11
1169.972641076098
 21
-919.1994012976897
 31
0.0
  0
LINE
  5
131
330
1F
100
AcDbEntity
  8
False Bits_ Plan_Pen_No__1
  6
Continuous
100
AcDbLine
 10
1162.261502547853
 20
-921.2852686468357
 30
0.0
 11
1162.50118084041
 21
-918.5457332270818
 31
0.0
  0
LINE
  5
132
330
1F
100
AcDbEntity
  8
False Bits_ Plan_Pen_No__1
  6
Continuous
100
AcDbLine
 10
1171.22725483068
 20
-922.0696703315631
 30
0.0
 11
1171.466933123237
 21
-919.3301349118092
 31
0.0
  0
LINE
  5
133
330
1F
100
AcDbEntity
  8
False Bits_ Plan_Pen_No__1
  6
Continuous
100
AcDbLine
 10
1160.767210500716
 20
-921.1545350327144
 30
0.0
 11
1161.006888793273
 21
-918.4149996129598
 31
0.0
  0
LINE
  5
134
330
1F
100
AcDbEntity
  8
False Bits_ Plan_Pen_No__2
  6
Continuous
100
AcDbLine
 10
1155.422430694766
 20
-919.3066751140277
 30
0.0
 11
1158.035735847548
 21
-917.9542934450994
 31
0.0
  0
LINE
  5
135
330
1F
100
AcDbEntity
  8
False Bits_ Plan_Pen_No__1
  6
Continuous
100
AcDbLine
 10
1157.77862640644
 20
-920.893067804471
 30
0.0
 11
1158.018304698996
 21
-918.1535323847167
 31
0.0
  0
LINE
  5
136
330
1F
100
AcDbEntity
  8
False Bits_ Plan_Pen_No__1
  6
Continuous
100
AcDbLine
 10
1159.272918453577
 20
-921.0238014185927
 30
0.0
 11
1159.512596746135
 21
-918.2842659988381
 31
0.0
  0
LINE
  5
137
330
1F
100
AcDbEntity
  8
False Bits_ Plan_Pen_No__1
  6
Continuous
100
AcDbLine
 10
1180.193007113506
 20
-922.8540720162927
 30
0.0
 11
1180.432685406062
 21
-920.1145365965386
 31
0.0
  0
LINE
  5
138
330
1F
100
AcDbEntity
  8
False Bits_ Plan_Pen_No__1
  6
Continuous
100
AcDbLine
 10
1181.687299160645
 20
-922.9848056304124
 30
0.0
 11
1181.926977453199
 21
-920.2452702106599
 31
0.0
  0
LINE
  5
139
330
1F
100
AcDbEntity
  8
False Bits_ Plan_Pen_No__2
  6
Continuous
100
AcDbLine
 10
1229.99976275682
 20
-927.4123624695942
 30
0.0
 11
1157.761195257889
 21
-921.0923067440882
 31
0.0
  0
LINE
  5
13A
330
1F
100
AcDbEntity
  8
False Bits_ Plan_Pen_No__1
  6
Continuous
100
AcDbLine
 10
1172.721546877817
 20
-922.2004039456832
 30
0.0
 11
1172.961225170374
 21
-919.4608685259307
 31
0.0
  0
LINE
  5
13B
330
1F
100
AcDbEntity
  8
False Bits_ Plan_Pen_No__1
  6
Continuous
100
AcDbLine
 10
1174.215838924955
 20
-922.3311375598049
 30
0.0
 11
1174.455517217511
 21
-919.5916021400538
 31
0.0
  0
LINE
  5
13C
330
1F
100
AcDbEntity
  8
False Bits_ Plan_Pen_No__1
  6
Continuous
100
AcDbLine
 10
1175.710130972094
 20
-922.4618711739283
 30
0.0
 11
1175.94980926465
 21
-919.7223357541739
 31
0.0
  0
LINE
  5
13D
330
1F
100
AcDbEntity
  8
False Bits_ Plan_Pen_No__1
  6
Continuous
100
AcDbLine
 10
1178.698715066368
 20
-922.7233384021694
 30
0.0
 11
1178.938393358924
 21
-919.9838029824171
 31
0.0
  0
LINE
  5
13E
330
1F
100
AcDbEntity
  8
False Bits_ Plan_Pen_No__1
  6
Continuous
100
AcDbLine
 10
1184.675883254919
 20
-923.2462728586556
 30
0.0
 11
1184.915561547474
 21
-920.5067374389034
 31
0.0
  0
LINE
  5
13F
330
1F
100
AcDbEntity
  8
False Bits_ Plan_Pen_No__1
  6
Continuous
100
AcDbLine
 10
1177.204423019229
 20
-922.5926047880477
 30
0.0
 11
1177.444101311788
 21
-919.8530693682956
 31
0.0
  0
LINE
  5
140
330
1F
100
AcDbEntity
  8
False Bits_ Plan_Pen_No__1
  6
Continuous
100
AcDbLine
 10
1183.18159120778
 20
-923.1155392445343
 30
0.0
 11
1183.421269500336
 21
-920.3760038247819
 31
0.0
  0
LINE
  5
141
330
1F
100
AcDbEntity
  8
False Bits_ Plan_Pen_No__2
  6
Continuous
100
AcDbLine
 10
1230.274303346476
 20
-924.2743491706058
 30
0.0
 11
1158.035735847547
 21
-917.9542934450992
 31
0.0
  0
LINE
  5
142
330
1F
100
AcDbEntity
  8
False Bits_ Plan_Pen_No__1
  6
Continuous
100
AcDbLine
 10
1195.135927584883
 20
-924.1614081575066
 30
0.0
 11
1195.375605877438
 21
-921.4218727377543
 31
0.0
  0
LINE
  5
143
330
1F
100
AcDbEntity
  8
False Bits_ Plan_Pen_No__1
  6
Continuous
100
AcDbLine
 10
1199.618803726295
 20
-924.5536089998715
 30
0.0
 11
1199.858482018851
 21
-921.8140735801172
 31
0.0
  0
LINE
  5
144
330
1F
100
AcDbEntity
  8
False Bits_ Plan_Pen_No__1
  6
Continuous
100
AcDbLine
 10
1193.641635537744
 20
-924.0306745433851
 30
0.0
 11
1193.881313830301
 21
-921.2911391236309
 31
0.0
  0
LINE
  5
145
330
1F
100
AcDbEntity
  8
False Bits_ Plan_Pen_No__1
  6
Continuous
100
AcDbLine
 10
1192.147343490606
 20
-923.8999409292633
 30
0.0
 11
1192.387021783164
 21
-921.1604055095113
 31
0.0
  0
LINE
  5
146
330
1F
100
AcDbEntity
  8
Documentation_ Floor_Pen_No__2
  6
Continuous
100
AcDbLine
 10
1231.631325098786
 20
-925.9740894342231
 30
0.0
 11
1230.361461368465
 21
-929.0149850434827
 31
0.0
  0
LINE
  5
147
330
1F
100
AcDbEntity
  8
Documentation_ Floor_Pen_No__2
  6
Continuous
100
AcDbLine
 10
1230.908799432922
 20
-922.758882339469
 30
0.0
 11
1231.631325098786
 21
-925.9740894342231
 31
0.0
  0
LINE
  5
148
330
1F
100
AcDbEntity
  8
False Bits_ Plan_Pen_No__1
  6
Continuous
100
AcDbLine
 10
1198.124511679156
 20
-924.42287538575
 30
0.0
 11
1198.364189971716
 21
-921.6833399659959
 31
0.0
  0
LINE
  5
149
330
1F
100
AcDbEntity
  8
False Bits_ Plan_Pen_No__2
  6
Continuous
100
AcDbLine
 10
1230.361461368465
 20
-929.0149850434827
 30
0.0
 11
1230.908799432922
 21
-922.758882339469
 31
0.0
  0
LINE
  5
14A
330
1F
100
AcDbEntity
  8
False Bits_ Plan_Pen_No__2
  6
Continuous
100
AcDbLine
 10
1230.361461368465
 20
-929.0149850434827
 30
0.0
 11
1229.86336401942
 21
-928.9714071721087
 31
0.0
  0
LINE
  5
14B
330
1F
100
AcDbEntity
  8
False Bits_ Plan_Pen_No__1
  6
Continuous
100
AcDbLine
 10
1202.607387820569
 20
-924.8150762281127
 30
0.0
 11
1202.847066113127
 21
-922.0755408083585
 31
0.0
  0
LINE
  5
14C
330
1F
100
AcDbEntity
  8
False Bits_ Plan_Pen_No__1
  6
Continuous
100
AcDbLine
 10
1208.58455600912
 20
-925.3380106845995
 30
0.0
 11
1208.824234301676
 21
-922.5984752648448
 31
0.0
  0
LINE
  5
14D
330
1F
100
AcDbEntity
  8
False Bits_ Plan_Pen_No__1
  6
Continuous
100
AcDbLine
 10
1204.101679867708
 20
-924.9458098422342
 30
0.0
 11
1204.341358160263
 21
-922.2062744224821
 31
0.0
  0
LINE
  5
14E
330
1F
100
AcDbEntity
  8
False Bits_ Plan_Pen_No__1
  6
Continuous
100
AcDbLine
 10
1205.595971914846
 20
-925.0765434563561
 30
0.0
 11
1205.835650207402
 21
-922.337008036604
 31
0.0
  0
LINE
  5
14F
330
1F
100
AcDbEntity
  8
False Bits_ Plan_Pen_No__1
  6
Continuous
100
AcDbLine
 10
1207.090263961981
 20
-925.2072770704774
 30
0.0
 11
1207.329942254541
 21
-922.4677416507235
 31
0.0
  0
LINE
  5
150
330
1F
100
AcDbEntity
  8
Documentation_ Floor_Pen_No__2
  6
Continuous
100
AcDbLine
 10
1231.631325098786
 20
-925.9740894342231
 30
0.0
 11
1230.635130400694
 21
-925.8869336914756
 31
0.0
  0
LINE
  5
151
330
1F
100
AcDbEntity
  8
False Bits_ Plan_Pen_No__1
  6
Continuous
100
AcDbLine
 10
1163.755794594992
 20
-921.4160022609553
 30
0.0
 11
1163.995472887549
 21
-918.6764668412033
 31
0.0
  0
LINE
  5
152
330
1F
100
AcDbEntity
  8
False Bits_ Plan_Pen_No__1
  6
Continuous
100
AcDbLine
 10
1196.630219632022
 20
-924.2921417716283
 30
0.0
 11
1196.869897924577
 21
-921.552606351876
 31
0.0
  0
LINE
  5
153
330
1F
100
AcDbEntity
  8
False Bits_ Plan_Pen_No__1
  6
Continuous
100
AcDbLine
 10
1187.664467349193
 20
-923.5077400868991
 30
0.0
 11
1187.904145641748
 21
-920.7682046671463
 31
0.0
  0
LINE
  5
154
330
1F
100
AcDbEntity
  8
False Bits_ Plan_Pen_No__1
  6
Continuous
100
AcDbLine
 10
1186.170175302058
 20
-923.3770064727771
 30
0.0
 11
1186.409853594613
 21
-920.637471053025
 31
0.0
  0
LINE
  5
155
330
1F
100
AcDbEntity
  8
False Bits_ Plan_Pen_No__2
  6
Continuous
100
AcDbLine
 10
1229.86336401942
 20
-928.9714071721087
 30
0.0
 11
1230.410702083876
 21
-922.7153044680949
 31
0.0
  0
LINE
  5
156
330
1F
100
AcDbEntity
  8
False Bits_ Plan_Pen_No__1
  6
Continuous
100
AcDbLine
 10
1189.158759396332
 20
-923.6384737010206
 30
0.0
 11
1189.398437688887
 21
-920.8989382812662
 31
0.0
  0
LINE
  5
157
330
1F
100
AcDbEntity
  8
False Bits_ Plan_Pen_No__1
  6
Continuous
100
AcDbLine
 10
1190.65305144347
 20
-923.7692073151421
 30
0.0
 11
1190.892729736026
 21
-921.0296718953895
 31
0.0
  0
LINE
  5
158
330
1F
100
AcDbEntity
  8
False Bits_ Plan_Pen_No__2
  6
Continuous
100
AcDbLine
 10
1230.410702083876
 20
-922.7153044680949
 30
0.0
 11
1230.908799432922
 21
-922.758882339469
 31
0.0
  0
LINE
  5
159
330
1F
100
AcDbEntity
  8
False Bits_ Plan_Pen_No__1
  6
Continuous
100
AcDbLine
 10
1201.113095773431
 20
-924.6843426139914
 30
0.0
 11
1201.352774065989
 21
-921.9448071942391
 31
0.0
  0
LINE
  5
15A
330
1F
100
AcDbEntity
  8
False Bits_ Plan_Pen_No__2
  6
Continuous
100
AcDbLine
 10
1155.422430694766
 20
-919.3066751140277
 30
0.0
 11
1157.761195257892
 21
-921.09230674409
 31
0.0
  0
LINE
  5
15B
330
1F
100
AcDbEntity
  8
Documentation_ Floor_Pen_No__4
  6
Continuous
100
AcDbLine
 10
1220.137033051647
 20
-957.1255854503156
 30
0.0
 11
1220.137033051647
 21
-947.1255854503159
 31
0.0
  0
LINE
  5
15C
330
1F
100
AcDbEntity
  8
Documentation_ Floor_Pen_No__4
  6
Continuous
100
AcDbLine
 10
1220.137033051647
 20
-947.1255854503159
 30
0.0
 11
1217.137033051647
 21
-947.1255854503159
 31
0.0
  0
LINE
  5
15D
330
1F
100
AcDbEntity
  8
Documentation_ Floor_Pen_No__4
  6
Continuous
100
AcDbLine
 10
1217.137033051647
 20
-947.1255854503159
 30
0.0
 11
1217.137033051647
 21
-941.1255854503156
 31
0.0
  0
LINE
  5
15E
330
1F
100
AcDbEntity
  8
Documentation_ Floor_Pen_No__4
  6
Continuous
100
AcDbLine
 10
1217.137033051647
 20
-941.1255854503156
 30
0.0
 11
1220.137033051647
 21
-941.1255854503156
 31
0.0
  0
LINE
  5
15F
330
1F
100
AcDbEntity
  8
Documentation_ Floor_Pen_No__4
  6
Continuous
100
AcDbLine
 10
1220.137033051647
 20
-941.1255854503156
 30
0.0
 11
1220.137033051647
 21
-932.1255854503172
 31
0.0
  0
LINE
  5
160
330
1F
100
AcDbEntity
  8
Documentation_ Floor_Pen_No__4
  6
Continuous
100
AcDbLine
 10
1220.137033051647
 20
-932.1255854503172
 30
0.0
 11
1210.137033051648
 21
-932.1255854503172
 31
0.0
  0
LINE
  5
161
330
1F
100
AcDbEntity
  8
Documentation_ Floor_Pen_No__4
  6
Continuous
100
AcDbLine
 10
1210.137033051648
 20
-932.1255854503172
 30
0.0
 11
1210.137033051648
 21
-957.1255854503176
 31
0.0
  0
INSERT
  5
169
330
1F
100
AcDbEntity
  8
Documentation_ Floor
  6
Continuous
100
AcDbBlockReference
  2
PolyLine_1
 10
1080.529783473642
 20
-643.9566108934417
 30
0.0
  0
INSERT
  5
170
330
1F
100
AcDbEntity
  8
Documentation_ Floor
  6
Continuous
100
AcDbBlockReference
  2
PolyLine_2
 10
1262.085189328528
 20
-835.435982954946
 30
0.0
  0
INSERT
  5
177
330
1F
100
AcDbEntity
  8
Documentation_ Floor
  6
Continuous
100
AcDbBlockReference
  2
PolyLine_3
 10
1262.085189328528
 20
-859.1328274363542
 30
0.0
  0
INSERT
  5
17E
330
1F
100
AcDbEntity
  8
Documentation_ Floor
  6
Continuous
100
AcDbBlockReference
  2
PolyLine_4
 10
1262.085189328528
 20
-875.1799588549955
 30
0.0
  0
INSERT
  5
185
330
1F
100
AcDbEntity
  8
Documentation_ Floor
  6
Continuous
100
AcDbBlockReference
  2
PolyLine_5
 10
1262.085189328528
 20
-890.6435582220499
 30
0.0
  0
INSERT
  5
18C
330
1F
100
AcDbEntity
  8
Documentation_ Floor
  6
Continuous
100
AcDbBlockReference
  2
PolyLine_6
 10
1262.085189328528
 20
-906.242611717178
 30
0.0
  0
INSERT
  5
193
330
1F
100
AcDbEntity
  8
Documentation_ Floor
  6
Continuous
100
AcDbBlockReference
  2
PolyLine_7
 10
1262.085189328528
 20
-772.5323856386069
 30
0.0
  0
INSERT
  5
19A
330
1F
100
AcDbEntity
  8
Documentation_ Floor
  6
Continuous
100
AcDbBlockReference
  2
PolyLine_8
 10
1262.393394022027
 20
-788.7567492979632
 30
0.0
  0
MTEXT
  5
19C
330
1F
100
AcDbEntity
  8
Documentation_ Floor_Pen_No__1
  6
Continuous
100
AcDbMText
 10
1264.137033051726
 20
-888.2821076403958
 30
0.0
 40
5.0
 41
0.0
 46
0.0
 71
     1
 72
     1
  1
{Cavity batten\P}
  7
GENERATED_STYLE_1
 73
     1
 44
1.0
  0
MTEXT
  5
19D
330
1F
100
AcDbEntity
  8
Documentation_ Floor_Pen_No__1
  6
Continuous
100
AcDbMText
 10
1264.137033051726
 20
-872.5677959485556
 30
0.0
 40
5.0
 41
0.0
 46
0.0
 71
     1
 72
     1
  1
{Building wrap\P}
  7
GENERATED_STYLE_1
 73
     1
 44
1.0
  0
MTEXT
  5
19E
330
1F
100
AcDbEntity
  8
Documentation_ Floor_Pen_No__1
  6
Continuous
100
AcDbMText
 10
1264.137033051726
 20
-856.8535010424431
 30
0.0
 40
5.0
 41
0.0
 46
0.0
 71
     1
 72
     1
  1
{Wall framing\P}
  7
GENERATED_STYLE_1
 73
     1
 44
1.0
  0
MTEXT
  5
19F
330
1F
100
AcDbEntity
  8
Documentation_ Floor_Pen_No__1
  6
Continuous
100
AcDbMText
 10
1024.35588718114
 20
-641.1255900462302
 30
0.0
 40
4.999999999999999
 41
0.0
 46
0.0
 71
     1
 72
     1
  1
{Internal wall lining\P}
  7
GENERATED_STYLE_1
 73
     1
 44
1.0
  0
MTEXT
  5
1A0
330
1F
100
AcDbEntity
  8
Documentation_ Floor_Pen_No__1
  6
Continuous
100
AcDbMText
 10
1264.137033051725
 20
-770.4245794585043
 30
0.0
 40
5.0
 41
0.0
 46
0.0
 71
     1
 72
     1
  1
{Soffit lining\P}
  7
GENERATED_STYLE_1
 73
     1
 44
1.0
  0
MTEXT
  5
1A1
330
1F
100
AcDbEntity
  8
Documentation_ Floor_Pen_No__1
  6
Continuous
100
AcDbMText
 10
1264.137033051725
 20
-833.2820425671357
 30
0.0
 40
5.0
 41
0.0
 46
0.0
 71
     1
 72
     1
  1
{Continuous horizontal cavity batten\Pto close off top of wall cavity\P}
  7
GENERATED_STYLE_1
 73
     1
 44
1.0
  0
MTEXT
  5
1A2
330
1F
100
AcDbEntity
  8
Documentation_ Floor_Pen_No__1
  6
Continuous
100
AcDbMText
 10
1264.137033051725
 20
-786.1389382177338
 30
0.0
 40
5.0
 41
0.0
 46
0.0
 71
     1
 72
     1
  1
{Bevelled cornice\Pfitted tight up against soffit lining\P}
  7
GENERATED_STYLE_1
 73
     1
 44
1.0
  0
MTEXT
  5
1A3
330
1F
100
AcDbEntity
  8
Documentation_ Floor_Pen_No__1
  6
Continuous
100
AcDbMText
 10
1264.137033051726
 20
-903.9964193322363
 30
0.0
 40
5.000000000000001
 41
0.0
 46
0.0
 71
     1
 72
     1
  1
Abodo rusticated weatherboard
  7
GENERATED_STYLE_1
 73
     1
 44
1.0
  0
VIEWPORT
  5
6FC
102
{ACAD_XDICTIONARY
360
6FD
102
}
330
6FB
100
AcDbEntity
 67
     1
  8
0
100
AcDbViewport
 10
88.11712671236216
 20
-28.61326623794509
 30
0.0
 40
525.4608882135946
 41
250.5756548776572
 68
     1
 69
     1
 12
88.11712671236216
 22
-28.61326623794509
 13
0.0
 23
0.0
 14
10.0
 24
10.0
 15
10.0
 25
10.0
 16
0.0
 26
0.0
 36
1.0
 17
0.0
 27
0.0
 37
0.0
 42
50.0
 43
0.0
 44
0.0
 45
250.5756548776572
 50
0.0
 51
0.0
 72
  1000
 90
   819232
  1

281
     0
 71
     1
 74
     0
110
0.0
120
0.0
130
0.0
111
1.0
121
0.0
131
0.0
112
0.0
122
1.0
132
0.0
 79
     0
146
0.0
170
     0
 61
     5
348
2F
292
     1
282
     1
141
0.0
142
0.0
 63
   250
421
  3355443
  0
LINE
  5
6FF
330
6FB
100
AcDbEntity
 67
     1
  8
0
100
AcDbLine
 10
3.15713315299277
 20
2.209414789719573
 30
0.0
 11
200.3709444587095
 21
2.209414789719573
 31
0.0
  0
LINE
  5
700
330
6FB
100
AcDbEntity
 67
     1
  8
0
100
AcDbLine
 10
200.3709444587095
 20
2.209414789719573
 30
0.0
 11
200.3709444587095
 21
287.7561714473947
 31
0.0
  0
LINE
  5
701
330
6FB
100
AcDbEntity
 67
     1
  8
0
100
AcDbLine
 10
200.3709444587095
 20
287.7561714473947
 30
0.0
 11
3.15713315299277
 21
287.7561714473947
 31
0.0
  0
LINE
  5
702
330
6FB
100
AcDbEntity
 67
     1
  8
0
100
AcDbLine
 10
3.15713315299277
 20
287.7561714473947
 30
0.0
 11
3.15713315299277
 21
2.209414789719573
 31
0.0
  0
LINE
  5
703
330
6FB
100
AcDbEntity
 67
     1
  8
0
100
AcDbLine
 10
3.15713315299277
 20
29.56659624953767
 30
0.0
 11
200.3709444587095
 21
29.56659624953767
 31
0.0
  0
LINE
  5
704
330
6FB
100
AcDbEntity
 67
     1
  8
0
100
AcDbLine
 10
200.3531650465694
 20
16.39078189578748
 30
0.0
 11
3.15713315299277
 21
16.39078189578748
 31
0.0
  0
LINE
  5
705
330
6FB
100
AcDbEntity
 67
     1
  8
0
100
AcDbLine
 10
149.4136253158573
 20
29.47846116364366
 30
0.0
 11
149.4136253158573
 21
2.262499034537484
 31
0.0
  0
LINE
  5
706
330
6FB
100
AcDbEntity
 67
     1
  8
0
100
AcDbLine
 10
176.2945725219253
 20
29.47846116364366
 30
0.0
 11
176.2945725219253
 21
16.39078189578748
 31
0.0
  0
MTEXT
  5
707
102
{ACAD_XDICTIONARY
360
708
102
}
330
6FB
100
AcDbEntity
 67
     1
  8
0
100
AcDbMText
 10
3.15713315299277
 20
285.3102914378114
 30
0.0
 40
3.0
 41
47.04732135723043
 46
0.0
 71
     1
 72
     5
  3
\pi-4.5,l9;{\fCambria|b0|i0|c0|p18;\H0.66667x;1.^IWeatherboards must be coated with at least one coat all sides prior to fixing.    \P2.^IFixing points must be pre-drilled minimum 1mm smaller than the fastener.\P3.^ICut ends and exposed timber must be s
  1
ealed with an approved coating or end seal.}
 73
     1
 44
1.0
1001
ACAD
1000
ACAD_MTEXT_COLUMN_INFO_BEGIN
1070
    75
1070
     2
1070
    79
1070
     0
1070
    76
1070
     1
1070
    78
1070
     0
1070
    48
1040
47.04732135723043
1070
    49
1040
12.5
1070
    50
1070
     1
1040
0.0
1000
ACAD_MTEXT_COLUMN_INFO_END
  0
MTEXT
  5
709
102
{ACAD_XDICTIONARY
360
70A
102
}
330
6FB
100
AcDbEntity
 67
     1
  8
0
100
AcDbMText
 10
42.55398918694436
 20
14.38432073487468
 30
0.0
 40
1.7
 41
75.82908797969011
 46
0.0
 71
     1
 72
     5
  1
{\fCambria|b0|i0|c0|p18;© 2013 Abodo Wood Ltd, PO Box 8961, Symonds St, Auckland 1052\PPh 64 9) 302 9555 Fx 64 9) 302 9550\H1.6364x; \H0.6111x;\P\L\C5;www.abodo.co.nz\l\C256; \H1.4221x; }
 73
     1
 44
1.0
1001
ACAD
1000
ACAD_MTEXT_COLUMN_INFO_BEGIN
1070
    75
1070
     2
1070
    79
1070
     0
1070
    76
1070
     1
1070
    78
1070
     0
1070
    48
1040
75.82908797969011
1070
    49
1040
12.5
1070
    50
1070
     1
1040
0.0
1000
ACAD_MTEXT_COLUMN_INFO_END
  0
MTEXT
  5
70B
102
{ACAD_XDICTIONARY
360
70C
102
}
330
6FB
100
AcDbEntity
 67
     1
  8
0
100
AcDbMText
 10
153.3071631151076
 20
13.80142210902022
 30
0.0
 40
3.0
 41
44.00734591470086
 46
0.0
 71
     1
 72
     5
  1
{\fCambria|b0|i0|c0|p18;\H0.66667x;Drawing No.\P\H1.5x;R.C.F.61\H1.2222x; }
 73
     1
 44
1.0
1001
ACAD
1000
ACAD_MTEXT_COLUMN_INFO_BEGIN
1070
    75
1070
     2
1070
    79
1070
     0
1070
    76
1070
     1
1070
    78
1070
     0
1070
    48
1040
44.00734591470086
1070
    49
1040
12.5
1070
    50
1070
     1
1040
0.0
1000
ACAD_MTEXT_COLUMN_INFO_END
  0
MTEXT
  5
70D
102
{ACAD_XDICTIONARY
360
70E
102
}
330
6FB
100
AcDbEntity
 67
     1
  8
0
100
AcDbMText
 10
153.294225110709
 20
27.56502405230072
 30
0.0
 40
3.0
 41
18.47308919738998
 46
0.0
 71
     1
 72
     5
  1
{\fCambria|b0|i0|c0|p18;\H0.66667x;Scale\P\H1.5x;1:2\H1.2283x; }
 73
     1
 44
1.0
1001
ACAD
1000
ACAD_MTEXT_COLUMN_INFO_BEGIN
1070
    75
1070
     2
1070
    79
1070
     0
1070
    76
1070
     1
1070
    78
1070
     0
1070
    48
1040
18.47308919738998
1070
    49
1040
12.5
1070
    50
1070
     1
1040
0.0
1000
ACAD_MTEXT_COLUMN_INFO_END
  0
MTEXT
  5
70F
102
{ACAD_XDICTIONARY
360
710
102
}
330
6FB
100
AcDbEntity
 67
     1
  8
0
100
AcDbMText
 10
178.7052816359999
 20
27.55909313553877
 30
0.0
 40
3.0
 41
18.47308919738998
 46
0.0
 71
     1
 72
     5
  1
{\fCambria|b0|i0|c0|p18;\H0.66667x;Date\P\H1.5x;3/10/13\H1.2584x; }
 73
     1
 44
1.0
1001
ACAD
1000
ACAD_MTEXT_COLUMN_INFO_BEGIN
1070
    75
1070
     2
1070
    79
1070
     0
1070
    76
1070
     1
1070
    78
1070
     0
1070
    48
1040
18.47308919738998
1070
    49
1040
12.5
1070
    50
1070
     1
1040
0.0
1000
ACAD_MTEXT_COLUMN_INFO_END
  0
MTEXT
  5
711
102
{ACAD_XDICTIONARY
360
712
102
}
330
6FB
100
AcDbEntity
 67
     1
  8
0
100
AcDbMText
 10
3.157133152992769
 20
26.63441117426942
 30
0.0
 40
3.0
 41
146.2564921628645
 46
0.0
 71
     1
 72
     5
  1
\pi48.925;{\fCambria|b0|i0|c0|p18;Rusticated Weatherboard\P\pi58.478;\H0.66667x;Top Of Wall - Flat Soffit\H1.5534x; }
 73
     1
 44
1.0
1001
ACAD
1000
ACAD_MTEXT_COLUMN_INFO_BEGIN
1070
    75
1070
     2
1070
    79
1070
     0
1070
    76
1070
     1
1070
    78
1070
     0
1070
    48
1040
146.2564921628645
1070
    49
1040
12.5
1070
    50
1070
     1
1040
13.17581435375018
1000
ACAD_MTEXT_COLUMN_INFO_END
  0
VIEWPORT
  5
713
102
{ACAD_XDICTIONARY
360
714
102
}
330
6FB
100
AcDbEntity
 67
     1
  8
0
100
AcDbViewport
 10
101.7640388058511
 20
158.6613838484662
 30
0.0
 40
197.2138113057167
 41
258.189575197857
 68
     2
 69
     2
 12
98.32135456926765
 22
-2199.540023225103
 13
0.0
 23
0.0
 14
10.0
 24
10.0
 15
10.0
 25
10.0
 16
-0.0000000000002274
 26
0.0
 36
1203.379210980805
 17
1101.376386191091
 27
1457.314650658801
 37
0.0
 42
50.0
 43
0.0
 44
0.0
 45
516.3791494592809
 50
0.0
 51
0.0
 72
  1000
 90
   819808
  1

281
     0
 71
     1
 74
     0
110
0.0
120
0.0
130
0.0
111
1.0
121
0.0
131
0.0
112
0.0
122
1.0
132
0.0
 79
     0
146
0.0
170
     0
 61
     5
348
2F
292
     1
282
     1
141
0.0
142
0.0
 63
   250
421
  3355443
  0
ENDSEC
  0
SECTION
  2
OBJECTS
  0
DICTIONARY
  5
C
330
0
100
AcDbDictionary
281
     1
  3
ACAD_CIP_PREVIOUS_PRODUCT_INFO
350
22D
  3
ACAD_COLOR
350
221
  3
ACAD_DETAILVIEWSTYLE
350
227
  3
ACAD_GROUP
350
D
  3
ACAD_IMAGE_DICT
350
71C
  3
ACAD_IMAGE_VARS
350
737
  3
ACAD_LAYOUT
350
1A
  3
ACAD_MATERIAL
350
3B
  3
ACAD_MLEADERSTYLE
350
214
  3
ACAD_MLINESTYLE
350
17
  3
ACAD_PLOTSETTINGS
350
19
  3
ACAD_PLOTSTYLENAME
350
E
  3
ACAD_SCALELIST
350
1A7
  3
ACAD_SECTIONVIEWSTYLE
350
224
  3
ACAD_TABLESTYLE
350
213
  3
ACAD_VISUALSTYLE
350
2A
  3
ACDB_RECOMPOSE_DATA
350
81F
  3
AcDbVariableDictionary
350
1EB
  3
WATERMARKS
350
1C9
  0
DICTIONARY
  5
6F8
330
2
100
AcDbDictionary
280
     1
281
     1
  3
ACAD_LAYERSTATES
360
6F9
  0
DICTIONARY
  5
73A
330
10
100
AcDbDictionary
280
     1
281
     1
  3
ADSK_XREC_LAYER_RECONCILED
360
73B
  0
DICTIONARY
  5
73C
330
40
100
AcDbDictionary
280
     1
281
     1
  3
ADSK_XREC_LAYER_RECONCILED
360
73D
  0
DICTIONARY
  5
73E
330
42
100
AcDbDictionary
280
     1
281
     1
  3
ADSK_XREC_LAYER_RECONCILED
360
73F
  0
DICTIONARY
  5
740
330
43
100
AcDbDictionary
280
     1
281
     1
  3
ADSK_XREC_LAYER_RECONCILED
360
741
  0
DICTIONARY
  5
742
330
46
100
AcDbDictionary
280
     1
281
     1
  3
ADSK_XREC_LAYER_RECONCILED
360
743
  0
DICTIONARY
  5
744
330
48
100
AcDbDictionary
280
     1
281
     1
  3
ADSK_XREC_LAYER_RECONCILED
360
745
  0
DICTIONARY
  5
746
330
4A
100
AcDbDictionary
280
     1
281
     1
  3
ADSK_XREC_LAYER_RECONCILED
360
747
  0
DICTIONARY
  5
748
330
4B
100
AcDbDictionary
280
     1
281
     1
  3
ADSK_XREC_LAYER_RECONCILED
360
749
  0
DICTIONARY
  5
74A
330
E6
100
AcDbDictionary
280
     1
281
     1
  3
ADSK_XREC_LAYER_RECONCILED
360
74B
  0
DICTIONARY
  5
74C
330
EA
100
AcDbDictionary
280
     1
281
     1
  3
ADSK_XREC_LAYER_RECONCILED
360
74D
  0
DICTIONARY
  5
74E
330
EE
100
AcDbDictionary
280
     1
281
     1
  3
ADSK_XREC_LAYER_RECONCILED
360
74F
  0
DICTIONARY
  5
750
330
F9
100
AcDbDictionary
280
     1
281
     1
  3
ADSK_XREC_LAYER_RECONCILED
360
751
  0
DICTIONARY
  5
752
330
FC
100
AcDbDictionary
280
     1
281
     1
  3
ADSK_XREC_LAYER_RECONCILED
360
753
  0
DICTIONARY
  5
754
330
FE
100
AcDbDictionary
280
     1
281
     1
  3
ADSK_XREC_LAYER_RECONCILED
360
755
  0
DICTIONARY
  5
756
330
106
100
AcDbDictionary
280
     1
281
     1
  3
ADSK_XREC_LAYER_RECONCILED
360
757
  0
DICTIONARY
  5
758
330
167
100
AcDbDictionary
280
     1
281
     1
  3
ADSK_XREC_LAYER_RECONCILED
360
759
  0
DICTIONARY
  5
75A
330
6E3
100
AcDbDictionary
280
     1
281
     1
  3
ADSK_XREC_LAYER_RECONCILED
360
75B
  0
DICTIONARY
  5
75C
330
6E4
100
AcDbDictionary
280
     1
281
     1
  3
ADSK_XREC_LAYER_RECONCILED
360
75D
  0
DICTIONARY
  5
75E
330
6E5
100
AcDbDictionary
280
     1
281
     1
  3
ADSK_XREC_LAYER_RECONCILED
360
75F
  0
DICTIONARY
  5
719
330
6FB
100
AcDbDictionary
280
     1
281
     1
  0
DICTIONARY
  5
6FD
330
6FC
100
AcDbDictionary
280
     1
281
     1
  3
ASDK_XREC_ANNOTATION_SCALE_INFO
360
6FE
  0
DICTIONARY
  5
708
330
707
100
AcDbDictionary
280
     1
281
     1
  3
ACAD_MTEXT_2008_RT
360
819
  0
DICTIONARY
  5
70A
330
709
100
AcDbDictionary
280
     1
281
     1
  3
ACAD_MTEXT_2008_RT
360
81A
  0
DICTIONARY
  5
70C
330
70B
100
AcDbDictionary
280
     1
281
     1
  3
ACAD_MTEXT_2008_RT
360
81B
  0
DICTIONARY
  5
70E
330
70D
100
AcDbDictionary
280
     1
281
     1
  3
ACAD_MTEXT_2008_RT
360
81C
  0
DICTIONARY
  5
710
330
70F
100
AcDbDictionary
280
     1
281
     1
  3
ACAD_MTEXT_2008_RT
360
81D
  0
DICTIONARY
  5
712
330
711
100
AcDbDictionary
280
     1
281
     1
  3
ACAD_MTEXT_2008_RT
360
81E
  0
DICTIONARY
  5
714
330
713
100
AcDbDictionary
280
     1
281
     1
  3
ASDK_XREC_ANNOTATION_SCALE_INFO
360
715
  0
XRECORD
  5
22D
102
{ACAD_REACTORS
330
C
102
}
330
C
100
AcDbXrecord
280
     1
300
ACD
300
2014
300
ACD_F_S
  0
DICTIONARY
  5
221
102
{ACAD_REACTORS
330
C
102
}
330
C
100
AcDbDictionary
281
     1
  0
DICTIONARY
  5
227
102
{ACAD_REACTORS
330
C
102
}
330
C
100
AcDbDictionary
281
     1
  3
Imperial24
350
228
  0
DICTIONARY
  5
D
102
{ACAD_REACTORS
330
C
102
}
330
C
100
AcDbDictionary
281
     1
  0
DICTIONARY
  5
71C
102
{ACAD_REACTORS
330
C
102
}
330
C
100
AcDbDictionary
281
     1
  3
Badge-CM40070
350
71D
  3
elements cladding logo
350
71E
  3
Elements_Brandmark_RGB
350
71F
  3
Elements_Brandmark_RGB-01
350
720
  0
RASTERVARIABLES
  5
737
102
{ACAD_REACTORS
330
C
102
}
330
C
100
AcDbRasterVariables
 90
        0
 70
     0
 71
     1
 72
     1
  0
DICTIONARY
  5
1A
102
{ACAD_REACTORS
330
C
102
}
330
C
100
AcDbDictionary
281
     1
  3
ABODO Template
350
6FA
  3
Model
350
22
  0
DICTIONARY
  5
3B
102
{ACAD_REACTORS
330
C
102
}
330
C
100
AcDbDictionary
281
     1
  3
ByBlock
350
3D
  3
ByLayer
350
3C
  3
Global
350
3E
  0
DICTIONARY
  5
214
102
{ACAD_REACTORS
330
C
102
}
330
C
100
AcDbDictionary
281
     1
  3
Standard
350
223
  0
DICTIONARY
  5
17
102
{ACAD_REACTORS
330
C
102
}
330
C
100
AcDbDictionary
281
     1
  3
Standard
350
18
  0
DICTIONARY
  5
19
102
{ACAD_REACTORS
330
C
102
}
330
C
100
AcDbDictionary
281
     1
  0
ACDBDICTIONARYWDFLT
  5
E
102
{ACAD_REACTORS
330
C
102
}
330
C
100
AcDbDictionary
281
     1
  3
Normal
350
F
100
AcDbDictionaryWithDefault
340
F
  0
DICTIONARY
  5
1A7
102
{ACAD_REACTORS
330
C
102
}
330
C
100
AcDbDictionary
281
     1
  3
A0
350
1A8
  3
A1
350
1A9
  3
A2
350
1AA
  3
A3
350
1AB
  3
A4
350
1AC
  3
A5
350
1AD
  3
A6
350
1AE
  3
A7
350
1AF
  3
A8
350
1B0
  3
A9
350
1B1
  3
B0
350
1B2
  3
B1
350
1B3
  3
B2
350
1B4
  3
B3
350
1B5
  3
B4
350
1B6
  3
B5
350
1B7
  3
B6
350
1B8
  3
B7
350
1B9
  3
B8
350
1BA
  3
B9
350
1BB
  3
C0
350
1BC
  3
C1
350
1BD
  3
C2
350
1BE
  3
C3
350
1BF
  3
C4
350
1C0
  3
C5
350
1C1
  3
C6
350
1C2
  3
C7
350
1C3
  3
C8
350
1C4
  3
C9
350
1C5
  3
D0
350
1C6
  3
D1
350
1C7
  3
D2
350
1C8
  0
DICTIONARY
  5
224
102
{ACAD_REACTORS
330
C
102
}
330
C
100
AcDbDictionary
281
     1
  3
Imperial24
350
226
  0
DICTIONARY
  5
213
102
{ACAD_REACTORS
330
C
102
}
330
C
100
AcDbDictionary
281
     1
  3
Standard
350
222
  0
DICTIONARY
  5
2A
102
{ACAD_REACTORS
330
C
102
}
330
C
100
AcDbDictionary
281
     1
  3
2dWireframe
350
2F
  3
3D Hidden
350
31
  3
3dWireframe
350
30
  3
Basic
350
32
  3
Brighten
350
36
  3
ColorChange
350
3A
  3
Conceptual
350
34
  3
Dim
350
35
  3
EdgeColorOff
350
220
  3
Facepattern
350
39
  3
Flat
350
2B
  3
FlatWithEdges
350
2C
  3
Gouraud
350
2D
  3
GouraudWithEdges
350
2E
  3
Hidden
350
218
  3
JitterOff
350
21E
  3
Linepattern
350
38
  3
OverhangOff
350
21F
  3
Realistic
350
33
  3
Shaded
350
21D
  3
Shaded with edges
350
21C
  3
Shades of Gray
350
219
  3
Sketchy
350
21A
  3
Thicken
350
37
  3
Wireframe
350
217
  3
X-Ray
350
21B
  0
XRECORD
  5
81F
102
{ACAD_REACTORS
330
C
102
}
330
C
100
AcDbXrecord
280
     1
 90
        1
330
222
330
226
330
228
330
707
330
709
330
70B
330
70D
330
70F
330
711
  0
DICTIONARY
  5
1EB
102
{ACAD_REACTORS
330
C
102
}
330
C
100
AcDbDictionary
281
     1
  3
CANNOSCALE
350
1EC
  3
CMLEADERSTYLE
350
770
  3
CTABLESTYLE
350
76F
  3
CVIEWDETAILSTYLE
350
771
  3
CVIEWSECTIONSTYLE
350
772
  3
LAYEREVAL
350
775
  3
LAYERNOTIFY
350
776
  3
LIGHTINGUNITS
350
774
  3
MSLTSCALE
350
773
  0
DICTIONARY
  5
1C9
102
{ACAD_REACTORS
330
C
102
}
330
C
100
AcDbDictionary
281
     1
  3
AC_WATERMARK
350
1CA
  0
DICTIONARY
  5
6F9
102
{ACAD_REACTORS
330
6F8
102
}
330
6F8
100
AcDbDictionary
281
     1
  0
XRECORD
  5
73B
102
{ACAD_REACTORS
330
73A
102
}
330
73A
100
AcDbXrecord
280
     1
290
     1
  0
XRECORD
  5
73D
102
{ACAD_REACTORS
330
73C
102
}
330
73C
100
AcDbXrecord
280
     1
290
     1
  0
XRECORD
  5
73F
102
{ACAD_REACTORS
330
73E
102
}
330
73E
100
AcDbXrecord
280
     1
290
     1
  0
XRECORD
  5
741
102
{ACAD_REACTORS
330
740
102
}
330
740
100
AcDbXrecord
280
     1
290
     1
  0
XRECORD
  5
743
102
{ACAD_REACTORS
330
742
102
}
330
742
100
AcDbXrecord
280
     1
290
     1
  0
XRECORD
  5
745
102
{ACAD_REACTORS
330
744
102
}
330
744
100
AcDbXrecord
280
     1
290
     1
  0
XRECORD
  5
747
102
{ACAD_REACTORS
330
746
102
}
330
746
100
AcDbXrecord
280
     1
290
     1
  0
XRECORD
  5
749
102
{ACAD_REACTORS
330
748
102
}
330
748
100
AcDbXrecord
280
     1
290
     1
  0
XRECORD
  5
74B
102
{ACAD_REACTORS
330
74A
102
}
330
74A
100
AcDbXrecord
280
     1
290
     1
  0
XRECORD
  5
74D
102
{ACAD_REACTORS
330
74C
102
}
330
74C
100
AcDbXrecord
280
     1
290
     1
  0
XRECORD
  5
74F
102
{ACAD_REACTORS
330
74E
102
}
330
74E
100
AcDbXrecord
280
     1
290
     1
  0
XRECORD
  5
751
102
{ACAD_REACTORS
330
750
102
}
330
750
100
AcDbXrecord
280
     1
290
     1
  0
XRECORD
  5
753
102
{ACAD_REACTORS
330
752
102
}
330
752
100
AcDbXrecord
280
     1
290
     1
  0
XRECORD
  5
755
102
{ACAD_REACTORS
330
754
102
}
330
754
100
AcDbXrecord
280
     1
290
     1
  0
XRECORD
  5
757
102
{ACAD_REACTORS
330
756
102
}
330
756
100
AcDbXrecord
280
     1
290
     1
  0
XRECORD
  5
759
102
{ACAD_REACTORS
330
758
102
}
330
758
100
AcDbXrecord
280
     1
290
     1
  0
XRECORD
  5
75B
102
{ACAD_REACTORS
330
75A
102
}
330
75A
100
AcDbXrecord
280
     1
290
     1
  0
XRECORD
  5
75D
102
{ACAD_REACTORS
330
75C
102
}
330
75C
100
AcDbXrecord
280
     1
290
     1
  0
XRECORD
  5
75F
102
{ACAD_REACTORS
330
75E
102
}
330
75E
100
AcDbXrecord
280
     1
290
     1
  0
XRECORD
  5
6FE
102
{ACAD_REACTORS
330
6FD
102
}
330
6FD
100
AcDbXrecord
280
     1
 90
        1
340
1A8
  0
XRECORD
  5
819
102
{ACAD_REACTORS
330
708
102
}
330
708
100
AcDbXrecord
280
     1
 40
3933011.0
  1
\pxi-1.5,l3,a0.83333,sm1.15;{\fCambria|b0|i0|c0|p18;\H0.66667x;1.^IWeatherboards must be coated with at least one coat all sides prior to fixing.    \P2.^IFixing points must be pre-drilled minimum 1mm smaller than the fastener.\P3.^ICut ends and exposed
  1
 timber must be sealed with an approved coating or end seal.}
  0
XRECORD
  5
81A
102
{ACAD_REACTORS
330
70A
102
}
330
70A
100
AcDbXrecord
280
     1
 40
1229739.0
  1
\pxa0.58824,sm1;{\fCambria|b0|i0|c0|p18;© 2013 Abodo Wood Ltd, PO Box 8961, Symonds St, Auckland 1052\PPh 64 9) 302 9555 Fx 64 9) 302 9550\P\L\C5;www.abodo.co.nz\l\C256; }
  0
XRECORD
  5
81B
102
{ACAD_REACTORS
330
70C
102
}
330
70C
100
AcDbXrecord
280
     1
 40
203870.0
  1
\pxa0.33333,sm1;{\fCambria|b0|i0|c0|p18;\H0.66667x;Drawing No.\P\H1.5x;R.C.F.61}
  0
XRECORD
  5
81C
102
{ACAD_REACTORS
330
70E
102
}
330
70E
100
AcDbXrecord
280
     1
 40
150955.0
  1
\pxa0.33333,sm1;{\fCambria|b0|i0|c0|p18;\H0.66667x;Scale\P\pql;\H1.5x;1:2}
  0
XRECORD
  5
81D
102
{ACAD_REACTORS
330
710
102
}
330
710
100
AcDbXrecord
280
     1
 40
158517.0
  1
\pxa0.33333,sm1,ql;{\fCambria|b0|i0|c0|p18;\H0.66667x;Date\P\H1.5x;3/10/13}
  0
XRECORD
  5
81E
102
{ACAD_REACTORS
330
712
102
}
330
712
100
AcDbXrecord
280
     1
 40
551955.0
  1
\pxa0.33333,sm1,qc;{\fCambria|b0|i0|c0|p18;Rusticated Weatherboard\P\H0.66667x;Top Of Wall - Flat Soffit}
  0
XRECORD
  5
715
102
{ACAD_REACTORS
330
714
102
}
330
714
100
AcDbXrecord
280
     1
 90
        1
340
1A9
  0
ACDBDETAILVIEWSTYLE
  5
228
102
{ACAD_XDICTIONARY
360
817
102
}
102
{ACAD_REACTORS
330
227
102
}
330
227
100
AcDbModelDocViewStyle
 70
     0
  3
Imperial24
290
     0
100
AcDbDetailViewStyle
 70
     0
 71
     0
 90
        3
 71
     1
340
11
 62
   256
 40
0.24
340
0
 62
   256
 40
0.24
300

 40
0.36
280
     3
 71
     2
340
16
 90
       25
 62
   256
 71
     3
340
11
 62
   256
 40
0.24
 90
        1
 40
0.75
 90
        1
300
%<\AcVar ViewType \f "%tc1">% %<\AcVar ViewDetailId>%\PSCALE %<\AcVar ViewScale \f "%sn">%
 71
     4
340
16
 90
       25
 62
   256
340
16
 90
       25
 62
   256
280
     0
  0
IMAGEDEF
  5
71D
102
{ACAD_REACTORS
330
71C
102
}
330
71C
100
AcDbRasterImageDef
 90
        0
  1
D:\ABODO Work\Badge-CM40070.png
 10
395.0
 20
452.0
 11
0.0846668360003387
 21
0.0846668360003387
280
     1
281
     2
  0
IMAGEDEF
  5
71E
102
{ACAD_REACTORS
330
71C
102
}
330
71C
100
AcDbRasterImageDef
 90
        0
  1
D:\ABODO Work\elements cladding logo.jpg
 10
288.0
 20
106.0
 11
0.1154545454545454
 21
0.1154545454545454
280
     1
281
     5
  0
IMAGEDEF
  5
71F
102
{ACAD_REACTORS
330
71C
102
}
330
71C
100
AcDbRasterImageDef
 90
        0
  1
.\Elements_Brandmark_RGB.jpg
 10
2649.0
 20
821.0
 11
0.0846666666666667
 21
0.0846666666666667
280
     1
281
     5
  0
IMAGEDEF
  5
720
102
{ACAD_REACTORS
330
71C
330
718
102
}
330
71C
100
AcDbRasterImageDef
 90
        0
  1
C:\Users\efar021\Desktop\Elements_Brandmark_RGB-01.png
 10
2338.0
 20
504.0
 11
0.0846668360003387
 21
0.0846668360003387
280
     1
281
     2
  0
LAYOUT
  5
6FA
102
{ACAD_XDICTIONARY
360
7EE
102
}
102
{ACAD_REACTORS
330
1A
102
}
330
1A
100
AcDbPlotSettings
  1

  2
Adobe PDF
  4
A4
  6

 40
3.174999952316284
 41
3.174999952316284
 42
3.175003051757812
 43
3.17498779296875
 44
209.9733276367187
 45
297.0318298339844
 46
0.0
 47
0.0
 48
0.0
 49
0.0
140
0.0
141
0.0
142
1.0
143
1.0
 70
   688
 72
     1
 73
     0
 74
     5
  7

 75
    16
147
1.0
 76
     0
 77
     2
 78
   300
148
0.0
149
0.0
100
AcDbLayout
  1
ABODO Template
 70
     1
 71
     1
 10
-3.174999952316284
 20
-3.174999952316284
 11
206.7983276844024
 21
293.8568298816681
 12
0.0
 22
0.0
 32
0.0
 14
3.15713315299277
 24
2.209414789719573
 34
0.0
 15
200.3709444587095
 25
287.7561714473947
 35
0.0
146
0.0
 13
0.0
 23
0.0
 33
0.0
 16
1.0
 26
0.0
 36
0.0
 17
0.0
 27
1.0
 37
0.0
 76
     0
330
6FB
331
6FC
1001
ACAD_PSEXT
1000
Adobe PDF
1000
Adobe PDF Converter
1000
Documents\*.pdf
1000

1070
     0
  0
LAYOUT
  5
22
102
{ACAD_XDICTIONARY
360
7B5
102
}
102
{ACAD_REACTORS
330
1A
102
}
330
1A
100
AcDbPlotSettings
  1

  2
none_device
  4

  6

 40
0.0
 41
0.0
 42
0.0
 43
0.0
 44
0.0
 45
0.0
 46
0.0
 47
0.0
 48
0.0
 49
0.0
140
0.0
141
0.0
142
1.0
143
1.0
 70
  1712
 72
     0
 73
     0
 74
     0
  7

 75
     0
147
1.0
 76
     0
 77
     2
 78
   300
148
0.0
149
0.0
100
AcDbLayout
  1
Model
 70
     1
 71
     0
 10
0.0
 20
0.0
 11
12.0
 21
9.0
 12
0.0
 22
0.0
 32
0.0
 14
1.000000000000000E+20
 24
1.000000000000000E+20
 34
1.000000000000000E+20
 15
-1.000000000000000E+20
 25
-1.000000000000000E+20
 35
-1.000000000000000E+20
146
0.0
 13
0.0
 23
0.0
 33
0.0
 16
1.0
 26
0.0
 36
0.0
 17
0.0
 27
1.0
 37
0.0
 76
     0
330
1F
331
29
  0
MATERIAL
  5
3D
102
{ACAD_REACTORS
330
3B
102
}
330
3B
100
AcDbMaterial
  1
ByBlock
 73
     1
 78
     1
172
     1
176
     1
270
     1
274
     1
  0
MATERIAL
  5
3C
102
{ACAD_REACTORS
330
3B
102
}
330
3B
100
AcDbMaterial
  1
ByLayer
 73
     1
 78
     1
172
     1
176
     1
270
     1
274
     1
  0
MATERIAL
  5
3E
102
{ACAD_REACTORS
330
3B
102
}
330
3B
100
AcDbMaterial
  1
Global
 73
     1
 78
     1
172
     1
176
     1
270
     1
274
     1
  0
MLEADERSTYLE
  5
223
102
{ACAD_REACTORS
330
214
102
}
330
214
100
AcDbMLeaderStyle
179
     2
170
     2
171
     1
172
     0
 90
        2
 40
0.0
 41
0.0
173
     1
 91
-1056964608
340
14
 92
       -2
290
     1
 42
0.09
291
     1
 43
0.36
  3
Standard
 44
0.18
300

342
11
174
     1
178
     6
175
     1
176
     0
 93
-1056964608
 45
0.18
292
     0
297
     0
 46
0.18
 94
-1056964608
 47
1.0
 49
1.0
140
1.0
293
     1
141
0.0
294
     1
177
     0
142
1.0
295
     0
296
     0
143
0.125
271
     0
272
     9
273
     9
298
     1
  0
MLINESTYLE
  5
18
102
{ACAD_REACTORS
330
17
102
}
330
17
100
AcDbMlineStyle
  2
STANDARD
 70
     0
  3

 62
   256
 51
90.0
 52
90.0
 71
     2
 49
0.5
 62
   256
  6
BYLAYER
 49
-0.5
 62
   256
  6
BYLAYER
  0
ACDBPLACEHOLDER
  5
F
102
{ACAD_REACTORS
330
E
102
}
330
E
  0
SCALE
  5
1A8
102
{ACAD_REACTORS
330
1A7
102
}
330
1A7
100
AcDbScale
 70
     0
300
1:1
140
1.0
141
1.0
290
     1
  0
SCALE
  5
1A9
102
{ACAD_REACTORS
330
1A7
102
}
330
1A7
100
AcDbScale
 70
     0
300
1:2
140
1.0
141
2.0
290
     0
  0
SCALE
  5
1AA
102
{ACAD_REACTORS
330
1A7
102
}
330
1A7
100
AcDbScale
 70
     0
300
1:4
140
1.0
141
4.0
290
     0
  0
SCALE
  5
1AB
102
{ACAD_REACTORS
330
1A7
102
}
330
1A7
100
AcDbScale
 70
     0
300
1:5
140
1.0
141
5.0
290
     0
  0
SCALE
  5
1AC
102
{ACAD_REACTORS
330
1A7
102
}
330
1A7
100
AcDbScale
 70
     0
300
1:8
140
1.0
141
8.0
290
     0
  0
SCALE
  5
1AD
102
{ACAD_REACTORS
330
1A7
102
}
330
1A7
100
AcDbScale
 70
     0
300
1:10
140
1.0
141
10.0
290
     0
  0
SCALE
  5
1AE
102
{ACAD_REACTORS
330
1A7
102
}
330
1A7
100
AcDbScale
 70
     0
300
1:16
140
1.0
141
16.0
290
     0
  0
SCALE
  5
1AF
102
{ACAD_REACTORS
330
1A7
102
}
330
1A7
100
AcDbScale
 70
     0
300
1:20
140
1.0
141
20.0
290
     0
  0
SCALE
  5
1B0
102
{ACAD_REACTORS
330
1A7
102
}
330
1A7
100
AcDbScale
 70
     0
300
1:30
140
1.0
141
30.0
290
     0
  0
SCALE
  5
1B1
102
{ACAD_REACTORS
330
1A7
102
}
330
1A7
100
AcDbScale
 70
     0
300
1:40
140
1.0
141
40.0
290
     0
  0
SCALE
  5
1B2
102
{ACAD_REACTORS
330
1A7
102
}
330
1A7
100
AcDbScale
 70
     0
300
1:50
140
1.0
141
50.0
290
     0
  0
SCALE
  5
1B3
102
{ACAD_REACTORS
330
1A7
102
}
330
1A7
100
AcDbScale
 70
     0
300
1:100
140
1.0
141
100.0
290
     0
  0
SCALE
  5
1B4
102
{ACAD_REACTORS
330
1A7
102
}
330
1A7
100
AcDbScale
 70
     0
300
2:1
140
2.0
141
1.0
290
     0
  0
SCALE
  5
1B5
102
{ACAD_REACTORS
330
1A7
102
}
330
1A7
100
AcDbScale
 70
     0
300
4:1
140
4.0
141
1.0
290
     0
  0
SCALE
  5
1B6
102
{ACAD_REACTORS
330
1A7
102
}
330
1A7
100
AcDbScale
 70
     0
300
8:1
140
8.0
141
1.0
290
     0
  0
SCALE
  5
1B7
102
{ACAD_REACTORS
330
1A7
102
}
330
1A7
100
AcDbScale
 70
     0
300
10:1
140
10.0
141
1.0
290
     0
  0
SCALE
  5
1B8
102
{ACAD_REACTORS
330
1A7
102
}
330
1A7
100
AcDbScale
 70
     0
300
100:1
140
100.0
141
1.0
290
     0
  0
SCALE
  5
1B9
102
{ACAD_REACTORS
330
1A7
102
}
330
1A7
100
AcDbScale
 70
     0
300
1/128" = 1'-0"
140
0.0078125
141
12.0
290
     0
  0
SCALE
  5
1BA
102
{ACAD_REACTORS
330
1A7
102
}
330
1A7
100
AcDbScale
 70
     0
300
1/64" = 1'-0"
140
0.015625
141
12.0
290
     0
  0
SCALE
  5
1BB
102
{ACAD_REACTORS
330
1A7
102
}
330
1A7
100
AcDbScale
 70
     0
300
1/32" = 1'-0"
140
0.03125
141
12.0
290
     0
  0
SCALE
  5
1BC
102
{ACAD_REACTORS
330
1A7
102
}
330
1A7
100
AcDbScale
 70
     0
300
1/16" = 1'-0"
140
0.0625
141
12.0
290
     0
  0
SCALE
  5
1BD
102
{ACAD_REACTORS
330
1A7
102
}
330
1A7
100
AcDbScale
 70
     0
300
3/32" = 1'-0"
140
0.09375
141
12.0
290
     0
  0
SCALE
  5
1BE
102
{ACAD_REACTORS
330
1A7
102
}
330
1A7
100
AcDbScale
 70
     0
300
1/8" = 1'-0"
140
0.125
141
12.0
290
     0
  0
SCALE
  5
1BF
102
{ACAD_REACTORS
330
1A7
102
}
330
1A7
100
AcDbScale
 70
     0
300
3/16" = 1'-0"
140
0.1875
141
12.0
290
     0
  0
SCALE
  5
1C0
102
{ACAD_REACTORS
330
1A7
102
}
330
1A7
100
AcDbScale
 70
     0
300
1/4" = 1'-0"
140
0.25
141
12.0
290
     0
  0
SCALE
  5
1C1
102
{ACAD_REACTORS
330
1A7
102
}
330
1A7
100
AcDbScale
 70
     0
300
3/8" = 1'-0"
140
0.375
141
12.0
290
     0
  0
SCALE
  5
1C2
102
{ACAD_REACTORS
330
1A7
102
}
330
1A7
100
AcDbScale
 70
     0
300
1/2" = 1'-0"
140
0.5
141
12.0
290
     0
  0
SCALE
  5
1C3
102
{ACAD_REACTORS
330
1A7
102
}
330
1A7
100
AcDbScale
 70
     0
300
3/4" = 1'-0"
140
0.75
141
12.0
290
     0
  0
SCALE
  5
1C4
102
{ACAD_REACTORS
330
1A7
102
}
330
1A7
100
AcDbScale
 70
     0
300
1" = 1'-0"
140
1.0
141
12.0
290
     0
  0
SCALE
  5
1C5
102
{ACAD_REACTORS
330
1A7
102
}
330
1A7
100
AcDbScale
 70
     0
300
1-1/2" = 1'-0"
140
1.5
141
12.0
290
     0
  0
SCALE
  5
1C6
102
{ACAD_REACTORS
330
1A7
102
}
330
1A7
100
AcDbScale
 70
     0
300
3" = 1'-0"
140
3.0
141
12.0
290
     0
  0
SCALE
  5
1C7
102
{ACAD_REACTORS
330
1A7
102
}
330
1A7
100
AcDbScale
 70
     0
300
6" = 1'-0"
140
6.0
141
12.0
290
     0
  0
SCALE
  5
1C8
102
{ACAD_REACTORS
330
1A7
102
}
330
1A7
100
AcDbScale
 70
     0
300
1'-0" = 1'-0"
140
12.0
141
12.0
290
     0
  0
ACDBSECTIONVIEWSTYLE
  5
226
102
{ACAD_XDICTIONARY
360
815
102
}
102
{ACAD_REACTORS
330
224
102
}
330
224
100
AcDbModelDocViewStyle
 70
     0
  3
Imperial24
290
     0
100
AcDbSectionViewStyle
 70
     0
 71
     0
 90
       78
 71
     1
340
11
 62
   256
 40
0.24
340
0
340
0
 62
   256
 40
0.24
300
I, O, Q, S, X, Z
 40
0.48
 90
        3
 40
0.18
 90
        1
 71
     2
340
225
 90
       25
 62
   256
340
16
 90
       50
 62
   256
 40
0.24
 40
0.0
 40
0.24
 71
     3
340
11
 62
   256
 40
0.24
 90
        1
 40
0.75
 90
        1
300
%<\AcVar ViewType \f "%tc1">% %<\AcVar ViewSectionStartId>%-%<\AcVar ViewSectionEndId>%\PSCALE %<\AcVar ViewScale \f "%sn">%
 71
     4
 62
   256
 62
   257
300
ANSI31
 40
1.0
 90
        0
290
     0
290
     0
 90
        6
 40
0.0
 40
1.570796326794896
 40
0.2617993877991494
 40
1.308996938995747
 40
-0.2617993877991494
 40
1.832595714594046
  0
TABLESTYLE
  5
222
102
{ACAD_XDICTIONARY
360
7A4
102
}
102
{ACAD_REACTORS
330
213
102
}
330
213
100
AcDbTableStyle
280
     0
  3
Standard
 70
     0
 71
     0
 40
0.06
 41
0.06
280
     0
281
     0
  7
Standard
140
0.18
170
     2
 62
     0
 63
     7
283
     0
 90
      512
 91
        0
  1

274
    -2
284
     1
 64
     0
275
    -2
285
     1
 65
     0
276
    -2
286
     1
 66
     0
277
    -2
287
     1
 67
     0
278
    -2
288
     1
 68
     0
279
    -2
289
     1
 69
     0
  7
Standard
140
0.25
170
     5
 62
     0
 63
     7
283
     0
 90
      512
 91
        0
  1

274
    -2
284
     1
 64
     0
275
    -2
285
     1
 65
     0
276
    -2
286
     1
 66
     0
277
    -2
287
     1
 67
     0
278
    -2
288
     1
 68
     0
279
    -2
289
     1
 69
     0
  7
Standard
140
0.18
170
     5
 62
     0
 63
     7
283
     0
 90
      512
 91
        0
  1

274
    -2
284
     1
 64
     0
275
    -2
285
     1
 65
     0
276
    -2
286
     1
 66
     0
277
    -2
287
     1
 67
     0
278
    -2
288
     1
 68
     0
279
    -2
289
     1
 69
     0
  0
VISUALSTYLE
  5
2F
102
{ACAD_REACTORS
330
2A
102
}
330
2A
100
AcDbVisualStyle
  2
2dWireframe
 70
     4
177
     3
291
     0
 70
    58
 90
        0
176
     1
 90
        2
176
     1
 90
        0
176
     1
 90
        0
176
     1
 40
0.6
176
     1
 40
30.0
176
     1
 62
     7
420
 16777215
176
     1
 90
        1
176
     1
 90
        4
176
     1
 62
     7
176
     1
 62
   257
176
     1
 90
        1
176
     1
 90
        1
176
     1
 40
1.0
176
     1
 90
        0
176
     1
 62
   257
176
     1
 40
1.0
176
     1
 90
        1
176
     1
 90
        6
176
     1
 90
        2
176
     1
 62
     7
176
     1
 90
        5
176
     1
 90
        0
176
     1
 90
        0
176
     1
290
     0
176
     1
 90
        1
176
     1
 40
0.0
176
     1
 90
        0
176
     1
290
     1
176
     1
290
     1
176
     1
290
     0
176
     1
290
     0
176
     1
290
     0
176
     1
290
     0
176
     1
290
     0
176
     1
290
     0
176
     1
290
     0
176
     1
 90
       50
176
     1
 40
0.0
176
     1
 40
1.0
176
     1
 90
        0
176
     1
 62
    18
420
        0
176
     1
 90
       50
176
     1
 90
        3
176
     1
 62
     5
420
      255
176
     1
290
     0
176
     1
 90
       50
176
     1
 90
       50
176
     1
 90
       50
176
     1
290
     0
176
     1
 90
       50
176
     1
 62
   256
176
     0
 40
1.0
176
     0
 90
        2
176
     1
  1
strokes_ogs.tif
176
     1
290
     0
176
     1
 40
1.0
176
     1
 40
1.0
176
     1
  0
VISUALSTYLE
  5
31
102
{ACAD_REACTORS
330
2A
102
}
330
2A
100
AcDbVisualStyle
  2
3D Hidden
 70
     6
177
     3
291
     0
 70
    58
 90
        1
176
     1
 90
        2
176
     1
 90
        2
176
     1
 90
        0
176
     1
 40
0.6
176
     1
 40
30.0
176
     1
 62
     7
420
 16777215
176
     1
 90
        2
176
     1
 90
        2
176
     1
 62
     7
176
     1
 62
   257
176
     1
 90
        2
176
     1
 90
        1
176
     1
 40
40.0
176
     1
 90
        0
176
     1
 62
   257
176
     1
 40
1.0
176
     1
 90
        1
176
     1
 90
        6
176
     1
 90
        2
176
     1
 62
     7
176
     1
 90
        3
176
     1
 90
        0
176
     1
 90
        0
176
     1
290
     0
176
     1
 90
        1
176
     1
 40
0.0
176
     1
 90
        0
176
     1
290
     0
176
     1
290
     1
176
     1
290
     1
176
     1
290
     0
176
     1
290
     0
176
     1
290
     0
176
     1
290
     0
176
     1
290
     0
176
     1
290
     0
176
     1
 90
       50
176
     1
 40
0.0
176
     1
 40
1.0
176
     1
 90
        0
176
     1
 62
    18
420
        0
176
     1
 90
       50
176
     1
 90
        3
176
     1
 62
     5
420
      255
176
     1
290
     0
176
     1
 90
       50
176
     1
 90
       50
176
     1
 90
       50
176
     1
290
     0
176
     1
 90
       50
176
     1
 62
   256
176
     0
 40
1.0
176
     0
 90
        2
176
     1
  1
strokes_ogs.tif
176
     1
290
     0
176
     1
 40
1.0
176
     1
 40
1.0
176
     1
  0
VISUALSTYLE
  5
30
102
{ACAD_REACTORS
330
2A
102
}
330
2A
100
AcDbVisualStyle
  2
3dWireframe
 70
     5
177
     3
291
     0
 70
    58
 90
        0
176
     1
 90
        2
176
     1
 90
        0
176
     1
 90
        0
176
     1
 40
0.6
176
     1
 40
30.0
176
     1
 62
     7
420
 16777215
176
     1
 90
        1
176
     1
 90
        4
176
     1
 62
     7
176
     1
 62
   257
176
     1
 90
        1
176
     1
 90
        1
176
     1
 40
1.0
176
     1
 90
        0
176
     1
 62
   257
176
     1
 40
1.0
176
     1
 90
        1
176
     1
 90
        6
176
     1
 90
        2
176
     1
 62
     7
176
     1
 90
        5
176
     1
 90
        0
176
     1
 90
        0
176
     1
290
     0
176
     1
 90
        1
176
     1
 40
0.0
176
     1
 90
        0
176
     1
290
     0
176
     1
290
     1
176
     1
290
     1
176
     1
290
     0
176
     1
290
     0
176
     1
290
     0
176
     1
290
     0
176
     1
290
     0
176
     1
290
     0
176
     1
 90
       50
176
     1
 40
0.0
176
     1
 40
1.0
176
     1
 90
        0
176
     1
 62
    18
420
        0
176
     1
 90
       50
176
     1
 90
        3
176
     1
 62
     5
420
      255
176
     1
290
     0
176
     1
 90
       50
176
     1
 90
       50
176
     1
 90
       50
176
     1
290
     0
176
     1
 90
       50
176
     1
 62
   256
176
     0
 40
1.0
176
     0
 90
        2
176
     1
  1
strokes_ogs.tif
176
     1
290
     0
176
     1
 40
1.0
176
     1
 40
1.0
176
     1
  0
VISUALSTYLE
  5
32
102
{ACAD_REACTORS
330
2A
102
}
330
2A
100
AcDbVisualStyle
  2
Basic
 70
     7
177
     3
291
     1
 70
    58
 90
        1
176
     1
 90
        0
176
     1
 90
        1
176
     1
 90
        0
176
     1
 40
0.6
176
     1
 40
30.0
176
     1
 62
     7
420
 16777215
176
     1
 90
        0
176
     1
 90
        4
176
     1
 62
     7
176
     1
 62
   257
176
     1
 90
        1
176
     1
 90
        1
176
     1
 40
1.0
176
     1
 90
        8
176
     1
 62
     7
176
     1
 40
1.0
176
     1
 90
        1
176
     1
 90
        6
176
     1
 90
        2
176
     1
 62
     7
176
     1
 90
        5
176
     1
 90
        0
176
     1
 90
        0
176
     1
290
     0
176
     1
 90
        1
176
     1
 40
0.0
176
     1
 90
        0
176
     1
290
     0
176
     1
290
     1
176
     1
290
     1
176
     1
290
     0
176
     1
290
     0
176
     1
290
     0
176
     1
290
     0
176
     1
290
     0
176
     1
290
     0
176
     1
 90
       50
176
     1
 40
0.0
176
     1
 40
1.0
176
     1
 90
        0
176
     1
 62
    18
420
        0
176
     1
 90
       50
176
     1
 90
        3
176
     1
 62
     5
420
      255
176
     1
290
     0
176
     1
 90
       50
176
     1
 90
       50
176
     1
 90
       50
176
     1
290
     0
176
     1
 90
       50
176
     1
 62
   256
176
     0
 40
1.0
176
     0
 90
        2
176
     1
  1
strokes_ogs.tif
176
     1
290
     0
176
     1
 40
1.0
176
     1
 40
1.0
176
     1
  0
VISUALSTYLE
  5
36
102
{ACAD_REACTORS
330
2A
102
}
330
2A
100
AcDbVisualStyle
  2
Brighten
 70
    12
177
     3
291
     1
 70
    58
 90
        2
176
     1
 90
        2
176
     1
 90
        0
176
     1
 90
        0
176
     1
 40
0.6
176
     1
 40
30.0
176
     1
 62
     7
420
 16777215
176
     1
 90
        1
176
     1
 90
        4
176
     1
 62
     7
176
     1
 62
   257
176
     1
 90
        1
176
     1
 90
        1
176
     1
 40
1.0
176
     1
 90
        8
176
     1
 62
     7
176
     1
 40
1.0
176
     1
 90
        1
176
     1
 90
        6
176
     1
 90
        2
176
     1
 62
     7
176
     1
 90
        5
176
     1
 90
        0
176
     1
 90
        0
176
     1
290
     0
176
     1
 90
        1
176
     1
 40
50.0
176
     1
 90
        0
176
     1
290
     0
176
     1
290
     1
176
     1
290
     1
176
     1
290
     0
176
     1
290
     0
176
     1
290
     0
176
     1
290
     0
176
     1
290
     0
176
     1
290
     0
176
     1
 90
       50
176
     1
 40
0.0
176
     1
 40
1.0
176
     1
 90
        0
176
     1
 62
    18
420
        0
176
     1
 90
       50
176
     1
 90
        3
176
     1
 62
     5
420
      255
176
     1
290
     0
176
     1
 90
       50
176
     1
 90
       50
176
     1
 90
       50
176
     1
290
     0
176
     1
 90
       50
176
     1
 62
   256
176
     0
 40
1.0
176
     0
 90
        2
176
     1
  1
strokes_ogs.tif
176
     1
290
     0
176
     1
 40
1.0
176
     1
 40
1.0
176
     1
  0
VISUALSTYLE
  5
3A
102
{ACAD_REACTORS
330
2A
102
}
330
2A
100
AcDbVisualStyle
  2
ColorChange
 70
    16
177
     3
291
     1
 70
    58
 90
        2
176
     1
 90
        2
176
     1
 90
        3
176
     1
 90
        0
176
     1
 40
0.6
176
     1
 40
30.0
176
     1
 62
     8
420
  8421504
176
     1
 90
        1
176
     1
 90
        4
176
     1
 62
     7
176
     1
 62
   257
176
     1
 90
        1
176
     1
 90
        1
176
     1
 40
1.0
176
     1
 90
        8
176
     1
 62
     8
420
  8421504
176
     1
 40
1.0
176
     1
 90
        1
176
     1
 90
        6
176
     1
 90
        2
176
     1
 62
     7
176
     1
 90
        5
176
     1
 90
        0
176
     1
 90
        0
176
     1
290
     0
176
     1
 90
        1
176
     1
 40
0.0
176
     1
 90
        0
176
     1
290
     0
176
     1
290
     1
176
     1
290
     1
176
     1
290
     0
176
     1
290
     0
176
     1
290
     0
176
     1
290
     0
176
     1
290
     0
176
     1
290
     0
176
     1
 90
       50
176
     1
 40
0.0
176
     1
 40
1.0
176
     1
 90
        0
176
     1
 62
    18
420
        0
176
     1
 90
       50
176
     1
 90
        3
176
     1
 62
     5
420
      255
176
     1
290
     0
176
     1
 90
       50
176
     1
 90
       50
176
     1
 90
       50
176
     1
290
     0
176
     1
 90
       50
176
     1
 62
   256
176
     0
 40
1.0
176
     0
 90
        2
176
     1
  1
strokes_ogs.tif
176
     1
290
     0
176
     1
 40
1.0
176
     1
 40
1.0
176
     1
  0
VISUALSTYLE
  5
34
102
{ACAD_REACTORS
330
2A
102
}
330
2A
100
AcDbVisualStyle
  2
Conceptual
 70
     9
177
     3
291
     0
 70
    58
 90
        3
176
     1
 90
        2
176
     1
 90
        0
176
     1
 90
        0
176
     1
 40
0.6
176
     1
 40
30.0
176
     1
 62
     7
420
 16777215
176
     1
 90
        2
176
     1
 90
        2
176
     1
 62
     7
176
     1
 62
   257
176
     1
 90
        1
176
     1
 90
        1
176
     1
 40
40.0
176
     1
 90
        8
176
     1
 62
     7
176
     1
 40
1.0
176
     1
 90
        1
176
     1
 90
        6
176
     1
 90
        2
176
     1
 62
     7
176
     1
 90
        3
176
     1
 90
        0
176
     1
 90
        0
176
     1
290
     0
176
     1
 90
        1
176
     1
 40
0.0
176
     1
 90
        0
176
     1
290
     0
176
     1
290
     1
176
     1
290
     1
176
     1
290
     0
176
     1
290
     0
176
     1
290
     0
176
     1
290
     0
176
     1
290
     0
176
     1
290
     0
176
     1
 90
       50
176
     1
 40
0.0
176
     1
 40
1.0
176
     1
 90
        0
176
     1
 62
    18
420
        0
176
     1
 90
       50
176
     1
 90
        3
176
     1
 62
     5
420
      255
176
     1
290
     0
176
     1
 90
       50
176
     1
 90
       50
176
     1
 90
       50
176
     1
290
     0
176
     1
 90
       50
176
     1
 62
   256
176
     0
 40
1.0
176
     0
 90
        2
176
     1
  1
strokes_ogs.tif
176
     1
290
     0
176
     1
 40
1.0
176
     1
 40
1.0
176
     1
  0
VISUALSTYLE
  5
35
102
{ACAD_REACTORS
330
2A
102
}
330
2A
100
AcDbVisualStyle
  2
Dim
 70
    11
177
     3
291
     1
 70
    58
 90
        2
176
     1
 90
        2
176
     1
 90
        0
176
     1
 90
        0
176
     1
 40
0.6
176
     1
 40
30.0
176
     1
 62
     7
420
 16777215
176
     1
 90
        1
176
     1
 90
        4
176
     1
 62
     7
176
     1
 62
   257
176
     1
 90
        1
176
     1
 90
        1
176
     1
 40
1.0
176
     1
 90
        8
176
     1
 62
     7
176
     1
 40
1.0
176
     1
 90
        1
176
     1
 90
        6
176
     1
 90
        2
176
     1
 62
     7
176
     1
 90
        5
176
     1
 90
        0
176
     1
 90
        0
176
     1
290
     0
176
     1
 90
        1
176
     1
 40
-50.0
176
     1
 90
        0
176
     1
290
     0
176
     1
290
     1
176
     1
290
     1
176
     1
290
     0
176
     1
290
     0
176
     1
290
     0
176
     1
290
     0
176
     1
290
     0
176
     1
290
     0
176
     1
 90
       50
176
     1
 40
0.0
176
     1
 40
1.0
176
     1
 90
        0
176
     1
 62
    18
420
        0
176
     1
 90
       50
176
     1
 90
        3
176
     1
 62
     5
420
      255
176
     1
290
     0
176
     1
 90
       50
176
     1
 90
       50
176
     1
 90
       50
176
     1
290
     0
176
     1
 90
       50
176
     1
 62
   256
176
     0
 40
1.0
176
     0
 90
        2
176
     1
  1
strokes_ogs.tif
176
     1
290
     0
176
     1
 40
1.0
176
     1
 40
1.0
176
     1
  0
VISUALSTYLE
  5
220
102
{ACAD_REACTORS
330
2A
102
}
330
2A
100
AcDbVisualStyle
  2
EdgeColorOff
 70
    22
177
     3
291
     1
 70
    58
 90
        2
176
     0
 90
        2
176
     0
 90
        0
176
     0
 90
        0
176
     0
 40
0.6
176
     0
 40
30.0
176
     0
 62
     7
420
 16777215
176
     0
 90
        1
176
     0
 90
        4
176
     0
 62
     7
176
     0
 62
   257
176
     0
 90
        1
176
     0
 90
        1
176
     0
 40
1.0
176
     0
 90
        8
176
     2
 62
     7
176
     0
 40
1.0
176
     0
 90
        1
176
     0
 90
        6
176
     0
 90
        2
176
     0
 62
     7
176
     0
 90
        5
176
     0
 90
        0
176
     0
 90
        0
176
     0
290
     0
176
     0
 90
        1
176
     0
 40
0.0
176
     0
 90
        0
176
     0
290
     0
176
     0
290
     1
176
     0
290
     1
176
     0
290
     0
176
     0
290
     0
176
     0
290
     0
176
     0
290
     0
176
     0
290
     0
176
     0
290
     0
176
     0
 90
       50
176
     0
 40
0.0
176
     0
 40
1.0
176
     0
 90
        0
176
     0
 62
    18
420
        0
176
     0
 90
       50
176
     0
 90
        3
176
     0
 62
     5
420
      255
176
     0
290
     0
176
     0
 90
       50
176
     0
 90
       50
176
     0
 90
       50
176
     0
290
     0
176
     0
 90
       50
176
     0
 62
   256
176
     0
 40
1.0
176
     0
 90
        2
176
     0
  1
strokes_ogs.tif
176
     0
290
     0
176
     0
 40
1.0
176
     0
 40
1.0
176
     0
  0
VISUALSTYLE
  5
39
102
{ACAD_REACTORS
330
2A
102
}
330
2A
100
AcDbVisualStyle
  2
Facepattern
 70
    15
177
     3
291
     1
 70
    58
 90
        2
176
     1
 90
        2
176
     1
 90
        0
176
     1
 90
        0
176
     1
 40
0.6
176
     1
 40
30.0
176
     1
 62
     7
420
 16777215
176
     1
 90
        1
176
     1
 90
        4
176
     1
 62
     7
176
     1
 62
   257
176
     1
 90
        1
176
     1
 90
        1
176
     1
 40
1.0
176
     1
 90
        8
176
     1
 62
     7
176
     1
 40
1.0
176
     1
 90
        1
176
     1
 90
        6
176
     1
 90
        2
176
     1
 62
     7
176
     1
 90
        5
176
     1
 90
        0
176
     1
 90
        0
176
     1
290
     0
176
     1
 90
        1
176
     1
 40
0.0
176
     1
 90
        0
176
     1
290
     0
176
     1
290
     1
176
     1
290
     1
176
     1
290
     0
176
     1
290
     0
176
     1
290
     0
176
     1
290
     0
176
     1
290
     0
176
     1
290
     0
176
     1
 90
       50
176
     1
 40
0.0
176
     1
 40
1.0
176
     1
 90
        0
176
     1
 62
    18
420
        0
176
     1
 90
       50
176
     1
 90
        3
176
     1
 62
     5
420
      255
176
     1
290
     0
176
     1
 90
       50
176
     1
 90
       50
176
     1
 90
       50
176
     1
290
     0
176
     1
 90
       50
176
     1
 62
   256
176
     0
 40
1.0
176
     0
 90
        2
176
     1
  1
strokes_ogs.tif
176
     1
290
     0
176
     1
 40
1.0
176
     1
 40
1.0
176
     1
  0
VISUALSTYLE
  5
2B
102
{ACAD_REACTORS
330
2A
102
}
330
2A
100
AcDbVisualStyle
  2
Flat
 70
     0
177
     3
291
     1
 70
    58
 90
        2
176
     1
 90
        1
176
     1
 90
        1
176
     1
 90
        2
176
     1
 40
0.6
176
     1
 40
30.0
176
     1
 62
     7
420
 16777215
176
     1
 90
        0
176
     1
 90
        4
176
     1
 62
     7
176
     1
 62
   257
176
     1
 90
        1
176
     1
 90
        1
176
     1
 40
1.0
176
     1
 90
        8
176
     1
 62
     7
176
     1
 40
1.0
176
     1
 90
        1
176
     1
 90
        6
176
     1
 90
        2
176
     1
 62
     7
176
     1
 90
        5
176
     1
 90
        0
176
     1
 90
        0
176
     1
290
     0
176
     1
 90
       13
176
     1
 40
0.0
176
     1
 90
        0
176
     1
290
     0
176
     1
290
     1
176
     1
290
     1
176
     1
290
     0
176
     1
290
     0
176
     1
290
     0
176
     1
290
     0
176
     1
290
     0
176
     1
290
     0
176
     1
 90
       50
176
     1
 40
0.0
176
     1
 40
1.0
176
     1
 90
        0
176
     1
 62
    18
420
        0
176
     1
 90
       50
176
     1
 90
        3
176
     1
 62
     5
420
      255
176
     1
290
     0
176
     1
 90
       50
176
     1
 90
       50
176
     1
 90
       50
176
     1
290
     0
176
     1
 90
       50
176
     1
 62
   256
176
     0
 40
1.0
176
     0
 90
        2
176
     1
  1
strokes_ogs.tif
176
     1
290
     0
176
     1
 40
1.0
176
     1
 40
1.0
176
     1
  0
VISUALSTYLE
  5
2C
102
{ACAD_REACTORS
330
2A
102
}
330
2A
100
AcDbVisualStyle
  2
FlatWithEdges
 70
     1
177
     3
291
     1
 70
    58
 90
        2
176
     1
 90
        1
176
     1
 90
        1
176
     1
 90
        2
176
     1
 40
0.6
176
     1
 40
30.0
176
     1
 62
     7
420
 16777215
176
     1
 90
        1
176
     1
 90
        4
176
     1
 62
     7
176
     1
 62
   257
176
     1
 90
        1
176
     1
 90
        1
176
     1
 40
1.0
176
     1
 90
        0
176
     1
 62
   257
176
     1
 40
1.0
176
     1
 90
        1
176
     1
 90
        6
176
     1
 90
        2
176
     1
 62
     7
176
     1
 90
        5
176
     1
 90
        0
176
     1
 90
        0
176
     1
290
     0
176
     1
 90
       13
176
     1
 40
0.0
176
     1
 90
        0
176
     1
290
     0
176
     1
290
     1
176
     1
290
     1
176
     1
290
     0
176
     1
290
     0
176
     1
290
     0
176
     1
290
     0
176
     1
290
     0
176
     1
290
     0
176
     1
 90
       50
176
     1
 40
0.0
176
     1
 40
1.0
176
     1
 90
        0
176
     1
 62
    18
420
        0
176
     1
 90
       50
176
     1
 90
        3
176
     1
 62
     5
420
      255
176
     1
290
     0
176
     1
 90
       50
176
     1
 90
       50
176
     1
 90
       50
176
     1
290
     0
176
     1
 90
       50
176
     1
 62
   256
176
     0
 40
1.0
176
     0
 90
        2
176
     1
  1
strokes_ogs.tif
176
     1
290
     0
176
     1
 40
1.0
176
     1
 40
1.0
176
     1
  0
VISUALSTYLE
  5
2D
102
{ACAD_REACTORS
330
2A
102
}
330
2A
100
AcDbVisualStyle
  2
Gouraud
 70
     2
177
     3
291
     1
 70
    58
 90
        2
176
     1
 90
        2
176
     1
 90
        1
176
     1
 90
        2
176
     1
 40
0.6
176
     1
 40
30.0
176
     1
 62
     7
420
 16777215
176
     1
 90
        0
176
     1
 90
        4
176
     1
 62
     7
176
     1
 62
   257
176
     1
 90
        1
176
     1
 90
        1
176
     1
 40
1.0
176
     1
 90
        0
176
     1
 62
     7
176
     1
 40
1.0
176
     1
 90
        1
176
     1
 90
        6
176
     1
 90
        2
176
     1
 62
     7
176
     1
 90
        5
176
     1
 90
        0
176
     1
 90
        0
176
     1
290
     0
176
     1
 90
       13
176
     1
 40
0.0
176
     1
 90
        0
176
     1
290
     0
176
     1
290
     1
176
     1
290
     1
176
     1
290
     0
176
     1
290
     0
176
     1
290
     0
176
     1
290
     0
176
     1
290
     0
176
     1
290
     0
176
     1
 90
       50
176
     1
 40
0.0
176
     1
 40
1.0
176
     1
 90
        0
176
     1
 62
    18
420
        0
176
     1
 90
       50
176
     1
 90
        3
176
     1
 62
     5
420
      255
176
     1
290
     0
176
     1
 90
       50
176
     1
 90
       50
176
     1
 90
       50
176
     1
290
     0
176
     1
 90
       50
176
     1
 62
   256
176
     0
 40
1.0
176
     0
 90
        2
176
     1
  1
strokes_ogs.tif
176
     1
290
     0
176
     1
 40
1.0
176
     1
 40
1.0
176
     1
  0
VISUALSTYLE
  5
2E
102
{ACAD_REACTORS
330
2A
102
}
330
2A
100
AcDbVisualStyle
  2
GouraudWithEdges
 70
     3
177
     3
291
     1
 70
    58
 90
        2
176
     1
 90
        2
176
     1
 90
        1
176
     1
 90
        2
176
     1
 40
0.6
176
     1
 40
30.0
176
     1
 62
     7
420
 16777215
176
     1
 90
        1
176
     1
 90
        4
176
     1
 62
     7
176
     1
 62
   257
176
     1
 90
        1
176
     1
 90
        1
176
     1
 40
1.0
176
     1
 90
        0
176
     1
 62
   257
176
     1
 40
1.0
176
     1
 90
        1
176
     1
 90
        6
176
     1
 90
        2
176
     1
 62
     7
176
     1
 90
        5
176
     1
 90
        0
176
     1
 90
        0
176
     1
290
     0
176
     1
 90
       13
176
     1
 40
0.0
176
     1
 90
        0
176
     1
290
     0
176
     1
290
     1
176
     1
290
     1
176
     1
290
     0
176
     1
290
     0
176
     1
290
     0
176
     1
290
     0
176
     1
290
     0
176
     1
290
     0
176
     1
 90
       50
176
     1
 40
0.0
176
     1
 40
1.0
176
     1
 90
        0
176
     1
 62
    18
420
        0
176
     1
 90
       50
176
     1
 90
        3
176
     1
 62
     5
420
      255
176
     1
290
     0
176
     1
 90
       50
176
     1
 90
       50
176
     1
 90
       50
176
     1
290
     0
176
     1
 90
       50
176
     1
 62
   256
176
     0
 40
1.0
176
     0
 90
        2
176
     1
  1
strokes_ogs.tif
176
     1
290
     0
176
     1
 40
1.0
176
     1
 40
1.0
176
     1
  0
VISUALSTYLE
  5
218
102
{ACAD_REACTORS
330
2A
102
}
330
2A
100
AcDbVisualStyle
  2
Hidden
 70
     6
177
     3
291
     0
 70
    58
 90
        1
176
     1
 90
        2
176
     1
 90
        2
176
     1
 90
        0
176
     1
 40
0.6
176
     1
 40
30.0
176
     1
 62
     7
420
 16777215
176
     1
 90
        2
176
     1
 90
        2
176
     1
 62
     7
176
     1
 62
   257
176
     1
 90
        2
176
     1
 90
        1
176
     1
 40
40.0
176
     1
 90
        0
176
     1
 62
   257
176
     1
 40
1.0
176
     1
 90
        1
176
     1
 90
        6
176
     1
 90
        2
176
     1
 62
     7
176
     1
 90
        3
176
     1
 90
        0
176
     1
 90
        0
176
     1
290
     0
176
     1
 90
        1
176
     1
 40
0.0
176
     1
 90
        0
176
     1
290
     0
176
     1
290
     1
176
     1
290
     1
176
     1
290
     0
176
     1
290
     0
176
     1
290
     0
176
     1
290
     0
176
     1
290
     0
176
     1
290
     0
176
     1
 90
       50
176
     1
 40
0.0
176
     1
 40
1.0
176
     1
 90
        0
176
     1
 62
    18
420
        0
176
     1
 90
       50
176
     1
 90
        3
176
     1
 62
     5
420
      255
176
     1
290
     0
176
     1
 90
       50
176
     1
 90
       50
176
     1
 90
       50
176
     1
290
     0
176
     1
 90
       50
176
     1
 62
   256
176
     0
 40
1.0
176
     0
 90
        2
176
     1
  1
strokes_ogs.tif
176
     1
290
     0
176
     1
 40
1.0
176
     1
 40
1.0
176
     1
  0
VISUALSTYLE
  5
21E
102
{ACAD_REACTORS
330
2A
102
}
330
2A
100
AcDbVisualStyle
  2
JitterOff
 70
    20
177
     3
291
     1
 70
    58
 90
        2
176
     0
 90
        2
176
     0
 90
        0
176
     0
 90
        0
176
     0
 40
0.6
176
     0
 40
30.0
176
     0
 62
     7
420
 16777215
176
     0
 90
        1
176
     0
 90
        4
176
     0
 62
     7
176
     0
 62
   257
176
     0
 90
        1
176
     0
 90
        1
176
     0
 40
1.0
176
     0
 90
       10
176
     2
 62
     7
176
     0
 40
1.0
176
     0
 90
        1
176
     0
 90
        6
176
     0
 90
        2
176
     0
 62
     7
176
     0
 90
        5
176
     0
 90
        0
176
     0
 90
        0
176
     0
290
     0
176
     0
 90
        1
176
     0
 40
0.0
176
     0
 90
        0
176
     0
290
     0
176
     0
290
     1
176
     0
290
     1
176
     0
290
     0
176
     0
290
     0
176
     0
290
     0
176
     0
290
     0
176
     0
290
     0
176
     0
290
     0
176
     0
 90
       50
176
     0
 40
0.0
176
     0
 40
1.0
176
     0
 90
        0
176
     0
 62
    18
420
        0
176
     0
 90
       50
176
     0
 90
        3
176
     0
 62
     5
420
      255
176
     0
290
     0
176
     0
 90
       50
176
     0
 90
       50
176
     0
 90
       50
176
     0
290
     0
176
     0
 90
       50
176
     0
 62
   256
176
     0
 40
1.0
176
     0
 90
        2
176
     0
  1
strokes_ogs.tif
176
     0
290
     0
176
     0
 40
1.0
176
     0
 40
1.0
176
     0
  0
VISUALSTYLE
  5
38
102
{ACAD_REACTORS
330
2A
102
}
330
2A
100
AcDbVisualStyle
  2
Linepattern
 70
    14
177
     3
291
     1
 70
    58
 90
        2
176
     1
 90
        2
176
     1
 90
        0
176
     1
 90
        0
176
     1
 40
0.6
176
     1
 40
30.0
176
     1
 62
     7
420
 16777215
176
     1
 90
        1
176
     1
 90
        4
176
     1
 62
     7
176
     1
 62
   257
176
     1
 90
        7
176
     1
 90
        7
176
     1
 40
1.0
176
     1
 90
        8
176
     1
 62
     7
176
     1
 40
1.0
176
     1
 90
        1
176
     1
 90
        6
176
     1
 90
        2
176
     1
 62
     7
176
     1
 90
        5
176
     1
 90
        0
176
     1
 90
        0
176
     1
290
     0
176
     1
 90
        1
176
     1
 40
0.0
176
     1
 90
        0
176
     1
290
     0
176
     1
290
     1
176
     1
290
     1
176
     1
290
     0
176
     1
290
     0
176
     1
290
     0
176
     1
290
     0
176
     1
290
     0
176
     1
290
     0
176
     1
 90
       50
176
     1
 40
0.0
176
     1
 40
1.0
176
     1
 90
        0
176
     1
 62
    18
420
        0
176
     1
 90
       50
176
     1
 90
        3
176
     1
 62
     5
420
      255
176
     1
290
     0
176
     1
 90
       50
176
     1
 90
       50
176
     1
 90
       50
176
     1
290
     0
176
     1
 90
       50
176
     1
 62
   256
176
     0
 40
1.0
176
     0
 90
        2
176
     1
  1
strokes_ogs.tif
176
     1
290
     0
176
     1
 40
1.0
176
     1
 40
1.0
176
     1
  0
VISUALSTYLE
  5
21F
102
{ACAD_REACTORS
330
2A
102
}
330
2A
100
AcDbVisualStyle
  2
OverhangOff
 70
    21
177
     3
291
     1
 70
    58
 90
        2
176
     0
 90
        2
176
     0
 90
        0
176
     0
 90
        0
176
     0
 40
0.6
176
     0
 40
30.0
176
     0
 62
     7
420
 16777215
176
     0
 90
        1
176
     0
 90
        4
176
     0
 62
     7
176
     0
 62
   257
176
     0
 90
        1
176
     0
 90
        1
176
     0
 40
1.0
176
     0
 90
        9
176
     2
 62
     7
176
     0
 40
1.0
176
     0
 90
        1
176
     0
 90
        6
176
     0
 90
        2
176
     0
 62
     7
176
     0
 90
        5
176
     0
 90
        0
176
     0
 90
        0
176
     0
290
     0
176
     0
 90
        1
176
     0
 40
0.0
176
     0
 90
        0
176
     0
290
     0
176
     0
290
     1
176
     0
290
     1
176
     0
290
     0
176
     0
290
     0
176
     0
290
     0
176
     0
290
     0
176
     0
290
     0
176
     0
290
     0
176
     0
 90
       50
176
     0
 40
0.0
176
     0
 40
1.0
176
     0
 90
        0
176
     0
 62
    18
420
        0
176
     0
 90
       50
176
     0
 90
        3
176
     0
 62
     5
420
      255
176
     0
290
     0
176
     0
 90
       50
176
     0
 90
       50
176
     0
 90
       50
176
     0
290
     0
176
     0
 90
       50
176
     0
 62
   256
176
     0
 40
1.0
176
     0
 90
        2
176
     0
  1
strokes_ogs.tif
176
     0
290
     0
176
     0
 40
1.0
176
     0
 40
1.0
176
     0
  0
VISUALSTYLE
  5
33
102
{ACAD_REACTORS
330
2A
102
}
330
2A
100
AcDbVisualStyle
  2
Realistic
 70
     8
177
     3
291
     0
 70
    58
 90
        2
176
     1
 90
        2
176
     1
 90
        0
176
     1
 90
        0
176
     1
 40
0.6
176
     1
 40
30.0
176
     1
 62
     7
420
 16777215
176
     1
 90
        1
176
     1
 90
        0
176
     1
 62
     7
176
     1
 62
   257
176
     1
 90
        1
176
     1
 90
        1
176
     1
 40
1.0
176
     1
 90
        8
176
     1
 62
     8
420
  7895160
176
     1
 40
1.0
176
     1
 90
        1
176
     1
 90
        6
176
     1
 90
        2
176
     1
 62
     7
176
     1
 90
        5
176
     1
 90
        0
176
     1
 90
        0
176
     1
290
     0
176
     1
 90
       13
176
     1
 40
0.0
176
     1
 90
        0
176
     1
290
     0
176
     1
290
     1
176
     1
290
     1
176
     1
290
     0
176
     1
290
     0
176
     1
290
     0
176
     1
290
     0
176
     1
290
     0
176
     1
290
     0
176
     1
 90
       50
176
     1
 40
0.0
176
     1
 40
1.0
176
     1
 90
        0
176
     1
 62
    18
420
        0
176
     1
 90
       50
176
     1
 90
        3
176
     1
 62
     5
420
      255
176
     1
290
     0
176
     1
 90
       50
176
     1
 90
       50
176
     1
 90
       50
176
     1
290
     0
176
     1
 90
       50
176
     1
 62
   256
176
     0
 40
1.0
176
     0
 90
        2
176
     1
  1
strokes_ogs.tif
176
     1
290
     0
176
     1
 40
1.0
176
     1
 40
1.0
176
     1
  0
VISUALSTYLE
  5
21D
102
{ACAD_REACTORS
330
2A
102
}
330
2A
100
AcDbVisualStyle
  2
Shaded
 70
    27
177
     3
291
     0
 70
    58
 90
        2
176
     1
 90
        2
176
     1
 90
        1
176
     1
 90
        2
176
     1
 40
0.6
176
     1
 40
30.0
176
     1
 62
     7
420
 16777215
176
     1
 90
        0
176
     1
 90
        4
176
     1
 62
     7
176
     1
 62
   257
176
     1
 90
        1
176
     1
 90
        1
176
     1
 40
1.0
176
     1
 90
        8
176
     1
 62
   257
176
     1
 40
1.0
176
     1
 90
        1
176
     1
 90
        6
176
     1
 90
        2
176
     1
 62
     8
420
  7895160
176
     1
 90
        3
176
     1
 90
        0
176
     1
 90
        0
176
     1
290
     0
176
     1
 90
        5
176
     1
 40
0.0
176
     1
 90
        0
176
     1
290
     0
176
     1
290
     1
176
     1
290
     1
176
     1
290
     0
176
     1
290
     0
176
     1
290
     0
176
     1
290
     0
176
     1
290
     0
176
     1
290
     0
176
     1
 90
       50
176
     1
 40
0.0
176
     1
 40
1.0
176
     1
 90
        0
176
     1
 62
    18
420
        0
176
     1
 90
       50
176
     1
 90
        3
176
     1
 62
     5
420
      255
176
     1
290
     0
176
     1
 90
       50
176
     1
 90
       50
176
     1
 90
       50
176
     1
290
     0
176
     1
 90
       50
176
     1
 62
   256
176
     0
 40
1.0
176
     0
 90
        2
176
     1
  1
strokes_ogs.tif
176
     1
290
     0
176
     1
 40
1.0
176
     1
 40
1.0
176
     1
  0
VISUALSTYLE
  5
21C
102
{ACAD_REACTORS
330
2A
102
}
330
2A
100
AcDbVisualStyle
  2
Shaded with edges
 70
    26
177
     3
291
     0
 70
    58
 90
        2
176
     1
 90
        2
176
     1
 90
        1
176
     1
 90
        2
176
     1
 40
0.6
176
     1
 40
30.0
176
     1
 62
     7
420
 16777215
176
     1
 90
        1
176
     1
 90
       10
176
     1
 62
     7
176
     1
 62
   257
176
     1
 90
        2
176
     1
 90
        1
176
     1
 40
1.0
176
     1
 90
        8
176
     1
 62
   257
176
     1
 40
1.0
176
     1
 90
        1
176
     1
 90
        6
176
     1
 90
        2
176
     1
 62
     7
176
     1
 90
        3
176
     1
 90
        0
176
     1
 90
        0
176
     1
290
     0
176
     1
 90
        5
176
     1
 40
0.0
176
     1
 90
        0
176
     1
290
     0
176
     1
290
     1
176
     1
290
     1
176
     1
290
     0
176
     1
290
     0
176
     1
290
     0
176
     1
290
     0
176
     1
290
     0
176
     1
290
     0
176
     1
 90
       50
176
     1
 40
0.0
176
     1
 40
1.0
176
     1
 90
        0
176
     1
 62
    18
420
        0
176
     1
 90
       50
176
     1
 90
        3
176
     1
 62
     5
420
      255
176
     1
290
     0
176
     1
 90
       50
176
     1
 90
       50
176
     1
 90
       50
176
     1
290
     0
176
     1
 90
       50
176
     1
 62
   256
176
     0
 40
1.0
176
     0
 90
        2
176
     1
  1
strokes_ogs.tif
176
     1
290
     0
176
     1
 40
1.0
176
     1
 40
1.0
176
     1
  0
VISUALSTYLE
  5
219
102
{ACAD_REACTORS
330
2A
102
}
330
2A
100
AcDbVisualStyle
  2
Shades of Gray
 70
    23
177
     3
291
     0
 70
    58
 90
        2
176
     1
 90
        2
176
     1
 90
        3
176
     1
 90
        0
176
     1
 40
0.6
176
     1
 40
30.0
176
     1
 62
     7
420
 16777215
176
     1
 90
        2
176
     1
 90
        2
176
     1
 62
     7
176
     1
 62
     7
176
     1
 90
        1
176
     1
 90
        1
176
     1
 40
40.0
176
     1
 90
        8
176
     1
 62
     7
176
     1
 40
1.0
176
     1
 90
        1
176
     1
 90
        6
176
     1
 90
        2
176
     1
 62
     7
176
     1
 90
        3
176
     1
 90
        0
176
     1
 90
        0
176
     1
290
     0
176
     1
 90
        1
176
     1
 40
0.0
176
     1
 90
        0
176
     1
290
     0
176
     1
290
     1
176
     1
290
     1
176
     1
290
     0
176
     1
290
     0
176
     1
290
     0
176
     1
290
     0
176
     1
290
     0
176
     1
290
     0
176
     1
 90
       50
176
     1
 40
0.0
176
     1
 40
1.0
176
     1
 90
        0
176
     1
 62
    18
420
        0
176
     1
 90
       50
176
     1
 90
        3
176
     1
 62
     5
420
      255
176
     1
290
     0
176
     1
 90
       50
176
     1
 90
       50
176
     1
 90
       50
176
     1
290
     0
176
     1
 90
       50
176
     1
 62
   256
176
     0
 40
1.0
176
     0
 90
        2
176
     1
  1
strokes_ogs.tif
176
     1
290
     0
176
     1
 40
1.0
176
     1
 40
1.0
176
     1
  0
VISUALSTYLE
  5
21A
102
{ACAD_REACTORS
330
2A
102
}
330
2A
100
AcDbVisualStyle
  2
Sketchy
 70
    24
177
     3
291
     0
 70
    58
 90
        1
176
     1
 90
        2
176
     1
 90
        2
176
     1
 90
        0
176
     1
 40
0.6
176
     1
 40
30.0
176
     1
 62
     7
420
 16777215
176
     1
 90
        2
176
     1
 90
        2
176
     1
 62
     7
176
     1
 62
     7
176
     1
 90
        1
176
     1
 90
        1
176
     1
 40
40.0
176
     1
 90
       11
176
     1
 62
     7
176
     1
 40
1.0
176
     1
 90
        1
176
     1
 90
        6
176
     1
 90
        2
176
     1
 62
     7
176
     1
 90
        6
176
     1
 90
        0
176
     1
 90
        0
176
     1
290
     0
176
     1
 90
        1
176
     1
 40
0.0
176
     1
 90
        0
176
     1
290
     0
176
     1
290
     1
176
     1
290
     1
176
     1
290
     0
176
     1
290
     0
176
     1
290
     0
176
     1
290
     0
176
     1
290
     0
176
     1
290
     0
176
     1
 90
       50
176
     1
 40
0.0
176
     1
 40
1.0
176
     1
 90
        0
176
     1
 62
    18
420
        0
176
     1
 90
       50
176
     1
 90
        3
176
     1
 62
     5
420
      255
176
     1
290
     0
176
     1
 90
       50
176
     1
 90
       50
176
     1
 90
       50
176
     1
290
     0
176
     1
 90
       50
176
     1
 62
   256
176
     0
 40
1.0
176
     0
 90
        2
176
     1
  1
strokes_ogs.tif
176
     1
290
     0
176
     1
 40
1.0
176
     1
 40
1.0
176
     1
  0
VISUALSTYLE
  5
37
102
{ACAD_REACTORS
330
2A
102
}
330
2A
100
AcDbVisualStyle
  2
Thicken
 70
    13
177
     3
291
     1
 70
    58
 90
        2
176
     1
 90
        2
176
     1
 90
        0
176
     1
 90
        0
176
     1
 40
0.6
176
     1
 40
30.0
176
     1
 62
     7
420
 16777215
176
     1
 90
        1
176
     1
 90
        4
176
     1
 62
     7
176
     1
 62
   257
176
     1
 90
        1
176
     1
 90
        1
176
     1
 40
1.0
176
     1
 90
       12
176
     1
 62
     7
176
     1
 40
1.0
176
     1
 90
        1
176
     1
 90
        6
176
     1
 90
        2
176
     1
 62
     7
176
     1
 90
        5
176
     1
 90
        0
176
     1
 90
        0
176
     1
290
     0
176
     1
 90
        1
176
     1
 40
0.0
176
     1
 90
        0
176
     1
290
     0
176
     1
290
     1
176
     1
290
     1
176
     1
290
     0
176
     1
290
     0
176
     1
290
     0
176
     1
290
     0
176
     1
290
     0
176
     1
290
     0
176
     1
 90
       50
176
     1
 40
0.0
176
     1
 40
1.0
176
     1
 90
        0
176
     1
 62
    18
420
        0
176
     1
 90
       50
176
     1
 90
        3
176
     1
 62
     5
420
      255
176
     1
290
     0
176
     1
 90
       50
176
     1
 90
       50
176
     1
 90
       50
176
     1
290
     0
176
     1
 90
       50
176
     1
 62
   256
176
     0
 40
1.0
176
     0
 90
        2
176
     1
  1
strokes_ogs.tif
176
     1
290
     0
176
     1
 40
1.0
176
     1
 40
1.0
176
     1
  0
VISUALSTYLE
  5
217
102
{ACAD_REACTORS
330
2A
102
}
330
2A
100
AcDbVisualStyle
  2
Wireframe
 70
     5
177
     3
291
     0
 70
    58
 90
        0
176
     1
 90
        2
176
     1
 90
        0
176
     1
 90
        0
176
     1
 40
0.6
176
     1
 40
30.0
176
     1
 62
     7
420
 16777215
176
     1
 90
        1
176
     1
 90
        4
176
     1
 62
     7
176
     1
 62
   257
176
     1
 90
        1
176
     1
 90
        1
176
     1
 40
1.0
176
     1
 90
        0
176
     1
 62
   257
176
     1
 40
1.0
176
     1
 90
        1
176
     1
 90
        6
176
     1
 90
        2
176
     1
 62
     7
176
     1
 90
        3
176
     1
 90
        0
176
     1
 90
        0
176
     1
290
     0
176
     1
 90
        1
176
     1
 40
0.0
176
     1
 90
        0
176
     1
290
     0
176
     1
290
     1
176
     1
290
     1
176
     1
290
     0
176
     1
290
     0
176
     1
290
     0
176
     1
290
     0
176
     1
290
     0
176
     1
290
     0
176
     1
 90
       50
176
     1
 40
0.0
176
     1
 40
1.0
176
     1
 90
        0
176
     1
 62
    18
420
        0
176
     1
 90
       50
176
     1
 90
        3
176
     1
 62
     5
420
      255
176
     1
290
     0
176
     1
 90
       50
176
     1
 90
       50
176
     1
 90
       50
176
     1
290
     0
176
     1
 90
       50
176
     1
 62
   256
176
     0
 40
1.0
176
     0
 90
        2
176
     1
  1
strokes_ogs.tif
176
     1
290
     0
176
     1
 40
1.0
176
     1
 40
1.0
176
     1
  0
VISUALSTYLE
  5
21B
102
{ACAD_REACTORS
330
2A
102
}
330
2A
100
AcDbVisualStyle
  2
X-Ray
 70
    25
177
     3
291
     0
 70
    58
 90
        2
176
     1
 90
        2
176
     1
 90
        1
176
     1
 90
        1
176
     1
 40
0.5
176
     1
 40
30.0
176
     1
 62
     7
420
 16777215
176
     1
 90
        1
176
     1
 90
        0
176
     1
 62
     7
176
     1
 62
   257
176
     1
 90
        1
176
     1
 90
        1
176
     1
 40
1.0
176
     1
 90
        8
176
     1
 62
     7
176
     1
 40
1.0
176
     1
 90
        1
176
     1
 90
        6
176
     1
 90
        2
176
     1
 62
     7
176
     1
 90
        3
176
     1
 90
        0
176
     1
 90
        0
176
     1
290
     0
176
     1
 90
       13
176
     1
 40
0.0
176
     1
 90
        0
176
     1
290
     0
176
     1
290
     1
176
     1
290
     1
176
     1
290
     0
176
     1
290
     0
176
     1
290
     0
176
     1
290
     0
176
     1
290
     0
176
     1
290
     0
176
     1
 90
       50
176
     1
 40
0.0
176
     1
 40
1.0
176
     1
 90
        0
176
     1
 62
    18
420
        0
176
     1
 90
       50
176
     1
 90
        3
176
     1
 62
     5
420
      255
176
     1
290
     0
176
     1
 90
       50
176
     1
 90
       50
176
     1
 90
       50
176
     1
290
     0
176
     1
 90
       50
176
     1
 62
   256
176
     0
 40
1.0
176
     0
 90
        2
176
     1
  1
strokes_ogs.tif
176
     1
290
     0
176
     1
 40
1.0
176
     1
 40
1.0
176
     1
  0
DICTIONARYVAR
  5
1EC
102
{ACAD_REACTORS
330
1EB
102
}
330
1EB
100
DictionaryVariables
280
     0
  1
1:1
  0
DICTIONARYVAR
  5
770
102
{ACAD_REACTORS
330
1EB
102
}
330
1EB
100
DictionaryVariables
280
     0
  1
STANDARD
  0
DICTIONARYVAR
  5
76F
102
{ACAD_REACTORS
330
1EB
102
}
330
1EB
100
DictionaryVariables
280
     0
  1
STANDARD
  0
DICTIONARYVAR
  5
771
102
{ACAD_REACTORS
330
1EB
102
}
330
1EB
100
DictionaryVariables
280
     0
  1
Imperial24
  0
DICTIONARYVAR
  5
772
102
{ACAD_REACTORS
330
1EB
102
}
330
1EB
100
DictionaryVariables
280
     0
  1
Imperial24
  0
DICTIONARYVAR
  5
775
102
{ACAD_REACTORS
330
1EB
102
}
330
1EB
100
DictionaryVariables
280
     0
  1
1
  0
DICTIONARYVAR
  5
776
102
{ACAD_REACTORS
330
1EB
102
}
330
1EB
100
DictionaryVariables
280
     0
  1
15
  0
DICTIONARYVAR
  5
774
102
{ACAD_REACTORS
330
1EB
102
}
330
1EB
100
DictionaryVariables
280
     0
  1
0
  0
DICTIONARYVAR
  5
773
102
{ACAD_REACTORS
330
1EB
102
}
330
1EB
100
DictionaryVariables
280
     0
  1
0
  0
XRECORD
  5
1CA
102
{ACAD_REACTORS
330
1C9
102
}
330
1C9
100
AcDbXrecord
280
     1
1000
This DWG file was created in ArchiCAD(TM)®
  0
DICTIONARY
  5
817
330
228
100
AcDbDictionary
280
     1
281
     1
  3
ACAD_XREC_ROUNDTRIP
360
818
  0
DICTIONARY
  5
7EE
330
6FA
100
AcDbDictionary
280
     1
281
     1
  0
DICTIONARY
  5
7B5
330
22
100
AcDbDictionary
280
     1
281
     1
  0
DICTIONARY
  5
815
330
226
100
AcDbDictionary
280
     1
281
     1
  3
ACAD_XREC_ROUNDTRIP
360
816
  0
DICTIONARY
  5
7A4
330
222
100
AcDbDictionary
280
     1
281
     1
  3
ACAD_ROUNDTRIP_2008_TABLESTYLE_CELLSTYLEMAP
360
814
  0
XRECORD
  5
818
102
{ACAD_REACTORS
330
817
102
}
330
817
100
AcDbXrecord
280
     1
102
DISPLAYNAME
  1
Imperial24
102
FLAGS
 90
        0
  0
XRECORD
  5
816
102
{ACAD_REACTORS
330
815
102
}
330
815
100
AcDbXrecord
280
     1
102
DISPLAYNAME
  1
Imperial24
102
FLAGS
 90
        0
  0
CELLSTYLEMAP
  5
814
102
{ACAD_REACTORS
330
7A4
102
}
330
7A4
100
AcDbCellStyleMap
 90
        3
300
CELLSTYLE
  1
TABLEFORMAT_BEGIN
 90
        5
170
     1
 91
        0
 92
    32768
 62
   257
 93
        1
300
CONTENTFORMAT
  1
CONTENTFORMAT_BEGIN
 90
        0
 91
        0
 92
      512
 93
        0
300

 40
0.0
140
1.0
 94
        5
 62
     0
340
11
144
0.25
309
CONTENTFORMAT_END
171
     0
 94
        0
309
TABLEFORMAT_END
  1
CELLSTYLE_BEGIN
 90
        1
 91
        1
300
_TITLE
309
CELLSTYLE_END
300
CELLSTYLE
  1
TABLEFORMAT_BEGIN
 90
        5
170
     1
 91
        0
 92
        0
 62
   257
 93
        1
300
CONTENTFORMAT
  1
CONTENTFORMAT_BEGIN
 90
        0
 91
        0
 92
      512
 93
        0
300

 40
0.0
140
1.0
 94
        5
 62
     0
340
11
144
0.18
309
CONTENTFORMAT_END
171
     0
 94
        0
309
TABLEFORMAT_END
  1
CELLSTYLE_BEGIN
 90
        2
 91
        1
300
_HEADER
309
CELLSTYLE_END
300
CELLSTYLE
  1
TABLEFORMAT_BEGIN
 90
        5
170
     1
 91
        0
 92
        0
 62
   257
 93
        1
300
CONTENTFORMAT
  1
CONTENTFORMAT_BEGIN
 90
        0
 91
        0
 92
      512
 93
        0
300

 40
0.0
140
1.0
 94
        2
 62
     0
340
11
144
0.18
309
CONTENTFORMAT_END
171
     0
 94
        0
309
TABLEFORMAT_END
  1
CELLSTYLE_BEGIN
 90
        3
 91
        2
300
_DATA
309
CELLSTYLE_END
  0
ENDSEC
  0
SECTION
  2
ACDSDATA
 70
     2
 71
     6
  0
ACDSSCHEMA
 90
        0
  1
AcDb_Thumbnail_Schema
  2
AcDbDs::ID
280
    10
 91
        8
  2
Thumbnail_Data
280
    15
 91
        0
101
ACDSRECORD
 95
        0
 90
        1
  2
AcDbDs::TreatedAsObjectData
280
     1
291
     1
101
ACDSRECORD
 95
        0
 90
        2
  2
AcDbDs::Legacy
280
     1
291
     1
101
ACDSRECORD
  1
AcDbDs::ID
 90
        3
  2
AcDs:Indexable
280
     1
291
     1
101
ACDSRECORD
  1
AcDbDs::ID
 90
        4
  2
AcDbDs::HandleAttribute
280
     7
282
     1
  0
ACDSSCHEMA
 90
        1
  1
AcDbDs::TreatedAsObjectDataSchema
  2
AcDbDs::TreatedAsObjectData
280
     1
 91
        0
  0
ACDSSCHEMA
 90
        2
  1
AcDbDs::LegacySchema
  2
AcDbDs::Legacy
280
     1
 91
        0
  0
ACDSSCHEMA
 90
        3
  1
AcDbDs::IndexedPropertySchema
  2
AcDs:Indexable
280
     1
 91
        0
  0
ACDSSCHEMA
 90
        4
  1
AcDbDs::HandleAttributeSchema
  2
AcDbDs::HandleAttribute
280
     7
 91
        1
284
     1
  0
ACDSRECORD
 90
        0
  2
AcDbDs::ID
280
    10
320
6FA
  2
Thumbnail_Data
280
    15
 94
     1905
310
89504E470D0A1A0A0000000D49484452000000B40000010008030000002D3FACD700000300504C5445FFFFFF000000C8C8C80000000000000000000000000000000000000000000000000000330000660000990000CC0000FF0033000033330033660033990033CC0033FF0066000066330066660066990066CC0066FF0099
310
000099330099660099990099CC0099FF00CC0000CC3300CC6600CC9900CCCC00CCFF00FF0000FF3300FF6600FF9900FFCC00FFFF3300003300333300663300993300CC3300FF3333003333333333663333993333CC3333FF3366003366333366663366993366CC3366FF3399003399333399663399993399CC3399FF33CC00
310
33CC3333CC6633CC9933CCCC33CCFF33FF0033FF3333FF6633FF9933FFCC33FFFF6600006600336600666600996600CC6600FF6633006633336633666633996633CC6633FF6666006666336666666666996666CC6666FF6699006699336699666699996699CC6699FF66CC0066CC3366CC6666CC9966CCCC66CCFF66FF0066
310
FF3366FF6666FF9966FFCC66FFFF9900009900339900669900999900CC9900FF9933009933339933669933999933CC9933FF9966009966339966669966999966CC9966FF9999009999339999669999999999CC9999FF99CC0099CC3399CC6699CC9999CCCC99CCFF99FF0099FF3399FF6699FF9999FFCC99FFFFCC0000CC00
310
33CC0066CC0099CC00CCCC00FFCC3300CC3333CC3366CC3399CC33CCCC33FFCC6600CC6633CC6666CC6699CC66CCCC66FFCC9900CC9933CC9966CC9999CC99CCCC99FFCCCC00CCCC33CCCC66CCCC99CCCCCCCCCCFFCCFF00CCFF33CCFF66CCFF99CCFFCCCCFFFFFF0000FF0033FF0066FF0099FF00CCFF00FFFF3300FF3333
310
FF3366FF3399FF33CCFF33FFFF6600FF6633FF6666FF6699FF66CCFF66FFFF9900FF9933FF9966FF9999FF99CCFF99FFFFCC00FFCC33FFCC66FFCC99FFCCCCFFCCFFFFFF00FFFF33FFFF66FFFF99FFFFCCFFFFFF0000000D0D0D1A1A1A2828283535354343435050505D5D5D6B6B6B787878868686939393A1A1A1AEAEAEBB
310
BBBBC9C9C9D6D6D6E4E4E4F1F1F1FFFFFF000000000000000000000000000000000000000000000000000000000000B0E2D2350000042C4944415478DAED9D0D72E2300C857583DEFF7A3A402633B9400B24C4490844B665EB95E7996D59E8B25F1FFAB709A2804B5400172AF453F5E77DFB9723D40333349C690043E3048E
310
141AC80353687D2B38A1BF167A4D311FBD20482A24741768944AE99AD2842634A84D03417FCC88900513A1AB4243D6D31FD338A1091DBC0D2034431EA1E1460841EC9AD0218735EC11098D61D384E60881D0D18635ACF2084D6842139AD0842634A1094DE8B2610D3B1742139AD084267425E87F9CC675904175BCDD1C933F
310
9BBFCC77F88D57EDD04354E837C7DAF1A06F8B4A378316404764F420F43B68DA743CF3A8FA6EAD76D0D37E69789B3E42AB86B7699DF6D43A66AEA2618DC53CE400ADD5CC43BCA06FD6A1F0D03A61406FA8FF6ED7B2691BB4E443EB04A0B4E8B4A1EE092D26A557689D26149B5EA911A11FDF2A3BA27A414F297BF8342E29B4
310
F62D98CC4A4FDA1D5AB2A0979B950B2647A5A7B572C2517A4A6E45B769D9264330474C94A64D7B873C486898E4029D11D5A160729C7B1CAB3C14A55DEA6967689FCEC53AAC91921EB14F373E4076E35234F7E084C94BE9FD2C0FC1A6A34C4DCBE6D30036EDB713D0123A7B2BA0E1B026CCEE9600429BE6D3DCFCEC063DBB55
310
E17576DBF488A20BECFC2D32B42EC179811E7B418B1D5ABB435BD3B8AE19451766306899A14BDE8EEEED8877EE045A66A5E5081E177AEC036DDB7379A1B406CF884B37BB519AD02E63B1A34D9F5F37FDB269DB873552E288D6D2A87DE7727744DD406F9F2B22F423B9A84680163BB4EA75E80BBF89EF0861CEE24969DA075A
310
860CE8EE4A671C073AB1E996730FB1B75BFDA1DF29BDBE98CF6EFC9609DCA06BA4F1930F7C7080AE5C7B9CB8526CE8D4119DAE96E53B165BFE87BF7FD1155A2CD1237117550CF3489506843ED6D2811D11103A92D29203FD30EA6ED092A5F4F36B5E95B78D960DCCA3FE5CDD1F5A4ECD233CF42B476C082D8DA1BB843C5768
310
F156FAD8EA15403BCE3D36D055F711A591D23DA187EF86CE6E6B5CA0ABEC2587B0E9A3D4B1947E0D7DA086840E32AC790F5D8DBA4D1A5FA4866902EECF7E71D41B4269A798D7C83C9094DE3922CE0881D0FED14360958E113D8C715ACF95868C1E0C797547BD0C79D97B2E8E367D31B2785EB3E645ED51E730729BCEA5F8E8
310
443B68315779A194863A3A11065A8C472762286D3C3A111EBADDD109479BF63B3AD16058D3FBE8445E72413B3A21218E4E485E69AA23D0DEB8201E9D0086EE7C742213FAC5D1092AEDD36ED111BDCF30314E37B7E97AEF6EE6A741B587167E340AA1094D684213BA3634D338A1094DE82F8346596194D6EB77E741D73F5DBC
310
BED287BBCBAF7845E8FF0EBD79C22F82F60ABE6DA02B285C042D50D01206DA905C12689C341EA44754F38F5E84AE79F5C9339BBEF0C384868586B4E9E28C68525AA1A083D51ED5A17FF60B12FAA72A34DE08211B1A718400B474EB05A7F12DD6038226B3DD0B024103AE5F269B6BDCC951F1D30000000049454E44AE426082
  0
ACDSRECORD
 90
        0
  2
AcDbDs::ID
280
    10
320
22
  2
Thumbnail_Data
280
    15
 94
     1211
310
89504E470D0A1A0A0000000D49484452000001000000007A080300000067627D4700000300504C5445212830000000C8C8C80000000000000000000000000000000000000000000000000000330000660000990000CC0000FF0033000033330033660033990033CC0033FF0066000066330066660066990066CC0066FF0099
310
000099330099660099990099CC0099FF00CC0000CC3300CC6600CC9900CCCC00CCFF00FF0000FF3300FF6600FF9900FFCC00FFFF3300003300333300663300993300CC3300FF3333003333333333663333993333CC3333FF3366003366333366663366993366CC3366FF3399003399333399663399993399CC3399FF33CC00
310
33CC3333CC6633CC9933CCCC33CCFF33FF0033FF3333FF6633FF9933FFCC33FFFF6600006600336600666600996600CC6600FF6633006633336633666633996633CC6633FF6666006666336666666666996666CC6666FF6699006699336699666699996699CC6699FF66CC0066CC3366CC6666CC9966CCCC66CCFF66FF0066
310
FF3366FF6666FF9966FFCC66FFFF9900009900339900669900999900CC9900FF9933009933339933669933999933CC9933FF9966009966339966669966999966CC9966FF9999009999339999669999999999CC9999FF99CC0099CC3399CC6699CC9999CCCC99CCFF99FF0099FF3399FF6699FF9999FFCC99FFFFCC0000CC00
310
33CC0066CC0099CC00CCCC00FFCC3300CC3333CC3366CC3399CC33CCCC33FFCC6600CC6633CC6666CC6699CC66CCCC66FFCC9900CC9933CC9966CC9999CC99CCCC99FFCCCC00CCCC33CCCC66CCCC99CCCCCCCCCCFFCCFF00CCFF33CCFF66CCFF99CCFFCCCCFFFFFF0000FF0033FF0066FF0099FF00CCFF00FFFF3300FF3333
310
FF3366FF3399FF33CCFF33FFFF6600FF6633FF6666FF6699FF66CCFF66FFFF9900FF9933FF9966FF9999FF99CCFF99FFFFCC00FFCC33FFCC66FFCC99FFCCCCFFCCFFFFFF00FFFF33FFFF66FFFF99FFFFCCFFFFFF0000000D0D0D1A1A1A2828283535354343435050505D5D5D6B6B6B787878868686939393A1A1A1AEAEAEBB
310
BBBBC9C9C9D6D6D6E4E4E4F1F1F1FFFFFF000000000000000000000000000000000000000000000000000000000000B21171F6000001764944415478DAED9C418E83300C00FDFF67F2802A52E4FB02295BD0B22C1CD733D356E2C085A9ED384ED508111111111111111111111111111111911BE4EB952D9657B4F85C642AA0
310
F0331F310214A000059C08B8496101FD4DB62BEA0BA89E0CBF0AE8A980F5F97B83A6401F066611D4085805CC1F6E04F421811B017DD4017004F4A1811B01A30C1A01F41A8016C05E063707E84688DC0A6F7B01FC6EB0390F808EC4F01321FC4C70CF441630C77946F26AC05AFF96875FDE4401F33AB817906801EB8D5592FE
310
4123741040EC04DF02B2B105145CFA9ED580ED460594EC832EE7014C01A3FBDB7781ACDDE0F10B060A1817758BFEFD1AF09DF5C116D0D8021A5D8029507F2676F543C9430A5005E48580EA291080354001A7028A9F043C8A804F08E005D06AC0F416C0ED04AD01F40850802910E74351538026A0F858E04F01D3E576D81428
310
2720B783116C0DF060E4472B4C5E05D8E702413F1708FAB9C02220D208B006B00570FE4B4344444444444444E41FF00530EF7610491E79800000000049454E44AE426082
  0
ENDSEC
  0
EOF
